ISO-10303-21;
HEADER;
FILE_DESCRIPTION (( 'STEP AP203' ),
    '1' );
FILE_NAME ('f378.STEP',
    '2023-02-12T10:39:13',
    ( '' ),
    ( '' ),
    'SwSTEP 2.0',
    'SolidWorks 2019',
    '' );
FILE_SCHEMA (( 'CONFIG_CONTROL_DESIGN' ));
ENDSEC;

DATA;
#1 = ORIENTED_EDGE ( 'NONE', *, *, #177, .T. ) ;
#2 = FACE_OUTER_BOUND ( 'NONE', #144, .T. ) ;
#3 = CARTESIAN_POINT ( 'NONE',  ( 0.000000000000000000, 0.000000000000000000, 7.000000000000000000 ) ) ;
#4 = FACE_OUTER_BOUND ( 'NONE', #139, .T. ) ;
#5 = ORIENTED_EDGE ( 'NONE', *, *, #63, .T. ) ;
#6 = CARTESIAN_POINT ( 'NONE',  ( 0.000000000000000000, 0.000000000000000000, 400.0000000000000000 ) ) ;
#7 = ORIENTED_EDGE ( 'NONE', *, *, #72, .T. ) ;
#8 = CARTESIAN_POINT ( 'NONE',  ( 8.000000000000000000, 9.797174393178825657E-16, 400.0000000000000000 ) ) ;
#9 = ADVANCED_FACE ( 'NONE', ( #121, #203 ), #156, .T. ) ;
#10 = PERSON_AND_ORGANIZATION_ROLE ( 'creator' ) ;
#11 = CALENDAR_DATE ( 2023, 12, 2 ) ;
#12 = DATE_AND_TIME ( #211, #244 ) ;
#13 = PERSON_AND_ORGANIZATION ( #207, #206 ) ;
#14 = APPLICATION_CONTEXT ( 'configuration controlled 3d designs of mechanical parts and assemblies' ) ;
#15 = AXIS2_PLACEMENT_3D ( 'NONE', #221, #80, #28 ) ;
#16 = APPROVAL ( #92, 'NEURÈENÝ' ) ;
#17 = ORIENTED_EDGE ( 'NONE', *, *, #173, .T. ) ;
#18 = CARTESIAN_POINT ( 'NONE',  ( -11.00000000000000000, 0.000000000000000000, 0.000000000000000000 ) ) ;
#19 = DIRECTION ( 'NONE',  ( -0.000000000000000000, -0.000000000000000000, -1.000000000000000000 ) ) ;
#20 = LINE ( 'NONE', #174, #242 ) ;
#21 = EDGE_CURVE ( 'NONE', #196, #77, #114, .T. ) ;
#22 = AXIS2_PLACEMENT_3D ( 'NONE', #124, #247, #225 ) ;
#23 = ORIENTED_EDGE ( 'NONE', *, *, #110, .T. ) ;
#24 = DIRECTION ( 'NONE',  ( 0.000000000000000000, 0.000000000000000000, 1.000000000000000000 ) ) ;
#25 = EDGE_LOOP ( 'NONE', ( #41, #23 ) ) ;
#26 = DIRECTION ( 'NONE',  ( -1.000000000000000000, 0.000000000000000000, 0.000000000000000000 ) ) ;
#27 = ORIENTED_EDGE ( 'NONE', *, *, #110, .F. ) ;
#28 = DIRECTION ( 'NONE',  ( 1.000000000000000000, 0.000000000000000000, -0.000000000000000000 ) ) ;
#29 = CIRCLE ( 'NONE', #69, 11.00000000000000000 ) ;
#30 = DATE_AND_TIME ( #67, #119 ) ;
#31 = AXIS2_PLACEMENT_3D ( 'NONE', #102, #158, #52 ) ;
#32 = DIRECTION ( 'NONE',  ( 0.000000000000000000, 0.000000000000000000, 1.000000000000000000 ) ) ;
#33 = APPROVAL_DATE_TIME ( #187, #130 ) ;
#34 = SECURITY_CLASSIFICATION ( '', '', #169 ) ;
#35 = ADVANCED_FACE ( 'NONE', ( #96 ), #165, .T. ) ;
#36 = ORIENTED_EDGE ( 'NONE', *, *, #125, .T. ) ;
#37 = VERTEX_POINT ( 'NONE', #117 ) ;
#38 = PLANE ( 'NONE',  #164 ) ;
#39 = ORIENTED_EDGE ( 'NONE', *, *, #72, .F. ) ;
#40 = DIRECTION ( 'NONE',  ( 1.000000000000000000, 0.000000000000000000, 0.000000000000000000 ) ) ;
#41 = ORIENTED_EDGE ( 'NONE', *, *, #113, .T. ) ;
#42 = CARTESIAN_POINT ( 'NONE',  ( 0.000000000000000000, 0.000000000000000000, 7.000000000000000000 ) ) ;
#43 = ORIENTED_EDGE ( 'NONE', *, *, #183, .F. ) ;
#44 = CARTESIAN_POINT ( 'NONE',  ( 0.000000000000000000, 0.000000000000000000, 400.0000000000000000 ) ) ;
#45 = CARTESIAN_POINT ( 'NONE',  ( -11.00000000000000000, 0.000000000000000000, 7.000000000000000000 ) ) ;
#46 =( NAMED_UNIT ( * ) PLANE_ANGLE_UNIT ( ) SI_UNIT ( $, .RADIAN. ) );
#47 = APPROVAL_ROLE ( '' ) ;
#48 = CARTESIAN_POINT ( 'NONE',  ( 0.000000000000000000, 0.000000000000000000, 0.000000000000000000 ) ) ;
#49 =( LENGTH_UNIT ( ) NAMED_UNIT ( * ) SI_UNIT ( .MILLI., .METRE. ) );
#50 = LOCAL_TIME ( 11, 39, 13.00000000000000000, #251 ) ;
#51 = SHAPE_DEFINITION_REPRESENTATION ( #118, #133 ) ;
#52 = DIRECTION ( 'NONE',  ( 1.000000000000000000, 0.000000000000000000, -0.000000000000000000 ) ) ;
#53 = LOCAL_TIME ( 11, 39, 13.00000000000000000, #191 ) ;
#54 = EDGE_LOOP ( 'NONE', ( #116, #180 ) ) ;
#55 = EDGE_LOOP ( 'NONE', ( #27, #93, #239, #39 ) ) ;
#56 = DIRECTION ( 'NONE',  ( 1.000000000000000000, 0.000000000000000000, 0.000000000000000000 ) ) ;
#57 = DIRECTION ( 'NONE',  ( 0.000000000000000000, 0.000000000000000000, 1.000000000000000000 ) ) ;
#58 = VERTEX_POINT ( 'NONE', #115 ) ;
#59 = DIRECTION ( 'NONE',  ( 0.000000000000000000, 0.000000000000000000, 1.000000000000000000 ) ) ;
#60 = DIRECTION ( 'NONE',  ( -0.000000000000000000, -0.000000000000000000, -1.000000000000000000 ) ) ;
#61 = COORDINATED_UNIVERSAL_TIME_OFFSET ( 1, 0, .AHEAD. ) ;
#62 = AXIS2_PLACEMENT_3D ( 'NONE', #82, #142, #215 ) ;
#63 = EDGE_CURVE ( 'NONE', #70, #178, #29, .T. ) ;
#64 = CC_DESIGN_APPROVAL ( #16, ( #34 ) ) ;
#65 = CYLINDRICAL_SURFACE ( 'NONE', #22, 11.00000000000000000 ) ;
#66 = PERSON_AND_ORGANIZATION_ROLE ( 'classification_officer' ) ;
#67 = CALENDAR_DATE ( 2023, 12, 2 ) ;
#68 = APPROVAL_PERSON_ORGANIZATION ( #13, #16, #228 ) ;
#69 = AXIS2_PLACEMENT_3D ( 'NONE', #94, #184, #197 ) ;
#70 = VERTEX_POINT ( 'NONE', #97 ) ;
#71 = DIRECTION ( 'NONE',  ( 0.000000000000000000, 0.000000000000000000, 1.000000000000000000 ) ) ;
#72 = EDGE_CURVE ( 'NONE', #58, #37, #20, .T. ) ;
#73 = ORIENTED_EDGE ( 'NONE', *, *, #21, .F. ) ;
#74 = DIRECTION ( 'NONE',  ( 0.000000000000000000, 0.000000000000000000, 1.000000000000000000 ) ) ;
#75 = EDGE_LOOP ( 'NONE', ( #243, #194, #182, #17 ) ) ;
#76 = DIRECTION ( 'NONE',  ( -0.000000000000000000, -0.000000000000000000, -1.000000000000000000 ) ) ;
#77 = VERTEX_POINT ( 'NONE', #176 ) ;
#78 = ADVANCED_FACE ( 'NONE', ( #4 ), #159, .F. ) ;
#79 = CIRCLE ( 'NONE', #123, 11.00000000000000000 ) ;
#80 = DIRECTION ( 'NONE',  ( 0.000000000000000000, 0.000000000000000000, 1.000000000000000000 ) ) ;
#81 = CIRCLE ( 'NONE', #136, 11.00000000000000000 ) ;
#82 = CARTESIAN_POINT ( 'NONE',  ( 0.000000000000000000, 0.000000000000000000, 7.000000000000000000 ) ) ;
#83 = PERSON_AND_ORGANIZATION ( #207, #206 ) ;
#84 = PERSON_AND_ORGANIZATION_ROLE ( 'design_supplier' ) ;
#85 = DESIGN_CONTEXT ( 'detailed design', #255, 'design' ) ;
#86 = PERSON_AND_ORGANIZATION ( #207, #206 ) ;
#87 = PERSON_AND_ORGANIZATION ( #207, #206 ) ;
#88 = CC_DESIGN_PERSON_AND_ORGANIZATION_ASSIGNMENT ( #87, #84, ( #172 ) ) ;
#89 = AXIS2_PLACEMENT_3D ( 'NONE', #6, #241, #157 ) ;
#90 = CC_DESIGN_DATE_AND_TIME_ASSIGNMENT ( #210, #222, ( #153 ) ) ;
#91 = AXIS2_PLACEMENT_3D ( 'NONE', #3, #60, #120 ) ;
#92 = APPROVAL_STATUS ( 'not_yet_approved' ) ;
#93 = ORIENTED_EDGE ( 'NONE', *, *, #21, .T. ) ;
#94 = CARTESIAN_POINT ( 'NONE',  ( 0.000000000000000000, 0.000000000000000000, 7.000000000000000000 ) ) ;
#95 = CIRCLE ( 'NONE', #135, 8.000000000000000000 ) ;
#96 = FACE_OUTER_BOUND ( 'NONE', #213, .T. ) ;
#97 = CARTESIAN_POINT ( 'NONE',  ( 11.00000000000000000, 1.347111479062088405E-15, 7.000000000000000000 ) ) ;
#98 = CC_DESIGN_APPROVAL ( #130, ( #153 ) ) ;
#99 = CARTESIAN_POINT ( 'NONE',  ( 8.000000000000000000, 9.797174393178825657E-16, 400.0000000000000000 ) ) ;
#100 = CYLINDRICAL_SURFACE ( 'NONE', #167, 8.000000000000000000 ) ;
#101 = FACE_OUTER_BOUND ( 'NONE', #55, .T. ) ;
#102 = CARTESIAN_POINT ( 'NONE',  ( 0.000000000000000000, 0.000000000000000000, 7.000000000000000000 ) ) ;
#103 = DIRECTION ( 'NONE',  ( -0.000000000000000000, -0.000000000000000000, -1.000000000000000000 ) ) ;
#104 = APPROVAL_DATE_TIME ( #30, #212 ) ;
#105 = MECHANICAL_CONTEXT ( 'NONE', #14, 'mechanical' ) ;
#106 = APPROVAL_PERSON_ORGANIZATION ( #166, #130, #189 ) ;
#107 = CC_DESIGN_DATE_AND_TIME_ASSIGNMENT ( #132, #230, ( #34 ) ) ;
#108 = COORDINATED_UNIVERSAL_TIME_OFFSET ( 1, 0, .AHEAD. ) ;
#109 = LOCAL_TIME ( 11, 39, 13.00000000000000000, #61 ) ;
#110 = EDGE_CURVE ( 'NONE', #196, #58, #95, .T. ) ;
#111 = VECTOR ( 'NONE', #245, 1000.000000000000000 ) ;
#112 = AXIS2_PLACEMENT_3D ( 'NONE', #163, #59, #145 ) ;
#113 = EDGE_CURVE ( 'NONE', #58, #196, #155, .T. ) ;
#114 = LINE ( 'NONE', #99, #129 ) ;
#115 = CARTESIAN_POINT ( 'NONE',  ( -8.000000000000000000, 0.000000000000000000, 400.0000000000000000 ) ) ;
#116 = ORIENTED_EDGE ( 'NONE', *, *, #177, .F. ) ;
#117 = CARTESIAN_POINT ( 'NONE',  ( -8.000000000000000000, 0.000000000000000000, 7.000000000000000000 ) ) ;
#118 = PRODUCT_DEFINITION_SHAPE ( 'NONE', 'NONE',  #153 ) ;
#119 = LOCAL_TIME ( 11, 39, 13.00000000000000000, #108 ) ;
#120 = DIRECTION ( 'NONE',  ( -1.000000000000000000, 0.000000000000000000, 0.000000000000000000 ) ) ;
#121 = FACE_BOUND ( 'NONE', #54, .T. ) ;
#122 = DIRECTION ( 'NONE',  ( -0.000000000000000000, -0.000000000000000000, -1.000000000000000000 ) ) ;
#123 = AXIS2_PLACEMENT_3D ( 'NONE', #42, #201, #40 ) ;
#124 = CARTESIAN_POINT ( 'NONE',  ( 0.000000000000000000, 0.000000000000000000, 7.000000000000000000 ) ) ;
#125 = EDGE_CURVE ( 'NONE', #178, #70, #79, .T. ) ;
#126 = APPROVAL_STATUS ( 'not_yet_approved' ) ;
#127 = UNCERTAINTY_MEASURE_WITH_UNIT (LENGTH_MEASURE( 1.000000000000000082E-05 ), #49, 'distance_accuracy_value', 'NONE');
#128 = CARTESIAN_POINT ( 'NONE',  ( 0.000000000000000000, 0.000000000000000000, 400.0000000000000000 ) ) ;
#129 = VECTOR ( 'NONE', #19, 1000.000000000000000 ) ;
#130 = APPROVAL ( #151, 'NEURÈENÝ' ) ;
#131 = CALENDAR_DATE ( 2023, 12, 2 ) ;
#132 = DATE_AND_TIME ( #11, #53 ) ;
#133 = ADVANCED_BREP_SHAPE_REPRESENTATION ( 'f378', ( #193, #148 ), #149 ) ;
#134 = APPROVAL_DATE_TIME ( #12, #16 ) ;
#135 = AXIS2_PLACEMENT_3D ( 'NONE', #44, #57, #217 ) ;
#136 = AXIS2_PLACEMENT_3D ( 'NONE', #220, #24, #204 ) ;
#137 = CC_DESIGN_PERSON_AND_ORGANIZATION_ASSIGNMENT ( #250, #66, ( #34 ) ) ;
#138 = CC_DESIGN_SECURITY_CLASSIFICATION ( #34, ( #172 ) ) ;
#139 = EDGE_LOOP ( 'NONE', ( #200, #162 ) ) ;
#140 = FACE_OUTER_BOUND ( 'NONE', #25, .T. ) ;
#141 = CC_DESIGN_PERSON_AND_ORGANIZATION_ASSIGNMENT ( #252, #150, ( #186 ) ) ;
#142 = DIRECTION ( 'NONE',  ( 0.000000000000000000, 0.000000000000000000, 1.000000000000000000 ) ) ;
#143 = CLOSED_SHELL ( 'NONE', ( #233, #35, #254, #9, #78, #202, #248 ) ) ;
#144 = EDGE_LOOP ( 'NONE', ( #73, #219, #7, #1 ) ) ;
#145 = DIRECTION ( 'NONE',  ( 1.000000000000000000, 0.000000000000000000, 0.000000000000000000 ) ) ;
#146 = CARTESIAN_POINT ( 'NONE',  ( 0.000000000000000000, 0.000000000000000000, 0.000000000000000000 ) ) ;
#147 = CALENDAR_DATE ( 2023, 12, 2 ) ;
#148 = AXIS2_PLACEMENT_3D ( 'NONE', #48, #32, #205 ) ;
#149 =( GEOMETRIC_REPRESENTATION_CONTEXT ( 3 ) GLOBAL_UNCERTAINTY_ASSIGNED_CONTEXT ( ( #127 ) ) GLOBAL_UNIT_ASSIGNED_CONTEXT ( ( #49, #46, #209 ) ) REPRESENTATION_CONTEXT ( 'NONE', 'WORKASPACE' ) );
#150 = PERSON_AND_ORGANIZATION_ROLE ( 'design_owner' ) ;
#151 = APPROVAL_STATUS ( 'not_yet_approved' ) ;
#152 = COORDINATED_UNIVERSAL_TIME_OFFSET ( 1, 0, .AHEAD. ) ;
#153 = PRODUCT_DEFINITION ( 'NEZNÁMÝ', '', #172, #85 ) ;
#154 = CC_DESIGN_PERSON_AND_ORGANIZATION_ASSIGNMENT ( #223, #10, ( #153 ) ) ;
#155 = CIRCLE ( 'NONE', #161, 8.000000000000000000 ) ;
#156 = PLANE ( 'NONE',  #31 ) ;
#157 = DIRECTION ( 'NONE',  ( -1.000000000000000000, 0.000000000000000000, 0.000000000000000000 ) ) ;
#158 = DIRECTION ( 'NONE',  ( 0.000000000000000000, 0.000000000000000000, 1.000000000000000000 ) ) ;
#159 = PLANE ( 'NONE',  #15 ) ;
#160 = CARTESIAN_POINT ( 'NONE',  ( 11.00000000000000000, 1.347111479062088405E-15, 0.000000000000000000 ) ) ;
#161 = AXIS2_PLACEMENT_3D ( 'NONE', #238, #74, #56 ) ;
#162 = ORIENTED_EDGE ( 'NONE', *, *, #188, .F. ) ;
#163 = CARTESIAN_POINT ( 'NONE',  ( 0.000000000000000000, 0.000000000000000000, 7.000000000000000000 ) ) ;
#164 = AXIS2_PLACEMENT_3D ( 'NONE', #128, #170, #227 ) ;
#165 = CYLINDRICAL_SURFACE ( 'NONE', #91, 11.00000000000000000 ) ;
#166 = PERSON_AND_ORGANIZATION ( #207, #206 ) ;
#167 = AXIS2_PLACEMENT_3D ( 'NONE', #179, #76, #26 ) ;
#168 = PRODUCT_RELATED_PRODUCT_CATEGORY ( 'detail', '', ( #186 ) ) ;
#169 = SECURITY_CLASSIFICATION_LEVEL ( 'unclassified' ) ;
#170 = DIRECTION ( 'NONE',  ( 0.000000000000000000, 0.000000000000000000, 1.000000000000000000 ) ) ;
#171 = CIRCLE ( 'NONE', #224, 11.00000000000000000 ) ;
#172 = PRODUCT_DEFINITION_FORMATION_WITH_SPECIFIED_SOURCE ( 'LIBOVOLNÝ', '', #186, .NOT_KNOWN. ) ;
#173 = EDGE_CURVE ( 'NONE', #232, #216, #171, .T. ) ;
#174 = CARTESIAN_POINT ( 'NONE',  ( -8.000000000000000000, 0.000000000000000000, 400.0000000000000000 ) ) ;
#175 = EDGE_LOOP ( 'NONE', ( #36, #5 ) ) ;
#176 = CARTESIAN_POINT ( 'NONE',  ( 8.000000000000000000, 9.797174393178825657E-16, 7.000000000000000000 ) ) ;
#177 = EDGE_CURVE ( 'NONE', #37, #77, #192, .T. ) ;
#178 = VERTEX_POINT ( 'NONE', #45 ) ;
#179 = CARTESIAN_POINT ( 'NONE',  ( 0.000000000000000000, 0.000000000000000000, 400.0000000000000000 ) ) ;
#180 = ORIENTED_EDGE ( 'NONE', *, *, #240, .F. ) ;
#181 = CYLINDRICAL_SURFACE ( 'NONE', #89, 8.000000000000000000 ) ;
#182 = ORIENTED_EDGE ( 'NONE', *, *, #183, .T. ) ;
#183 = EDGE_CURVE ( 'NONE', #178, #232, #214, .T. ) ;
#184 = DIRECTION ( 'NONE',  ( 0.000000000000000000, 0.000000000000000000, 1.000000000000000000 ) ) ;
#185 = FACE_OUTER_BOUND ( 'NONE', #75, .T. ) ;
#186 = PRODUCT ( 'f378', 'f378', '', ( #105 ) ) ;
#187 = DATE_AND_TIME ( #131, #109 ) ;
#188 = EDGE_CURVE ( 'NONE', #216, #232, #81, .T. ) ;
#189 = APPROVAL_ROLE ( '' ) ;
#190 = APPLICATION_PROTOCOL_DEFINITION ( 'international standard', 'config_control_design', 1994, #255 ) ;
#191 = COORDINATED_UNIVERSAL_TIME_OFFSET ( 1, 0, .AHEAD. ) ;
#192 = CIRCLE ( 'NONE', #62, 8.000000000000000000 ) ;
#193 = MANIFOLD_SOLID_BREP ( 'Pøidat vysunutím3', #143 ) ;
#194 = ORIENTED_EDGE ( 'NONE', *, *, #125, .F. ) ;
#195 = CARTESIAN_POINT ( 'NONE',  ( -11.00000000000000000, 0.000000000000000000, 7.000000000000000000 ) ) ;
#196 = VERTEX_POINT ( 'NONE', #8 ) ;
#197 = DIRECTION ( 'NONE',  ( 1.000000000000000000, 0.000000000000000000, 0.000000000000000000 ) ) ;
#198 = ORIENTED_EDGE ( 'NONE', *, *, #63, .F. ) ;
#199 = DIRECTION ( 'NONE',  ( 1.000000000000000000, 0.000000000000000000, 0.000000000000000000 ) ) ;
#200 = ORIENTED_EDGE ( 'NONE', *, *, #173, .F. ) ;
#201 = DIRECTION ( 'NONE',  ( 0.000000000000000000, 0.000000000000000000, 1.000000000000000000 ) ) ;
#202 = ADVANCED_FACE ( 'NONE', ( #2 ), #100, .T. ) ;
#203 = FACE_OUTER_BOUND ( 'NONE', #175, .T. ) ;
#204 = DIRECTION ( 'NONE',  ( 1.000000000000000000, 0.000000000000000000, 0.000000000000000000 ) ) ;
#205 = DIRECTION ( 'NONE',  ( 1.000000000000000000, 0.000000000000000000, 0.000000000000000000 ) ) ;
#206 = ORGANIZATION ( 'NEURÈENÝ', 'NEURÈENÝ', '' ) ;
#207 = PERSON ( 'NEURÈENÝ', 'NEURÈENÝ', 'NEURÈENÝ', ('NEURÈENÝ'), ('NEURÈENÝ'), ('NEURÈENÝ') ) ;
#208 = APPLICATION_PROTOCOL_DEFINITION ( 'international standard', 'config_control_design', 1994, #14 ) ;
#209 =( NAMED_UNIT ( * ) SI_UNIT ( $, .STERADIAN. ) SOLID_ANGLE_UNIT ( ) );
#210 = DATE_AND_TIME ( #147, #50 ) ;
#211 = CALENDAR_DATE ( 2023, 12, 2 ) ;
#212 = APPROVAL ( #126, 'NEURÈENÝ' ) ;
#213 = EDGE_LOOP ( 'NONE', ( #198, #237, #235, #43 ) ) ;
#214 = LINE ( 'NONE', #195, #111 ) ;
#215 = DIRECTION ( 'NONE',  ( 1.000000000000000000, 0.000000000000000000, 0.000000000000000000 ) ) ;
#216 = VERTEX_POINT ( 'NONE', #160 ) ;
#217 = DIRECTION ( 'NONE',  ( 1.000000000000000000, 0.000000000000000000, 0.000000000000000000 ) ) ;
#218 = CC_DESIGN_PERSON_AND_ORGANIZATION_ASSIGNMENT ( #83, #249, ( #172 ) ) ;
#219 = ORIENTED_EDGE ( 'NONE', *, *, #113, .F. ) ;
#220 = CARTESIAN_POINT ( 'NONE',  ( 0.000000000000000000, 0.000000000000000000, 0.000000000000000000 ) ) ;
#221 = CARTESIAN_POINT ( 'NONE',  ( 0.000000000000000000, 0.000000000000000000, 0.000000000000000000 ) ) ;
#222 = DATE_TIME_ROLE ( 'creation_date' ) ;
#223 = PERSON_AND_ORGANIZATION ( #207, #206 ) ;
#224 = AXIS2_PLACEMENT_3D ( 'NONE', #146, #71, #199 ) ;
#225 = DIRECTION ( 'NONE',  ( -1.000000000000000000, 0.000000000000000000, 0.000000000000000000 ) ) ;
#226 = CC_DESIGN_APPROVAL ( #212, ( #172 ) ) ;
#227 = DIRECTION ( 'NONE',  ( 1.000000000000000000, 0.000000000000000000, -0.000000000000000000 ) ) ;
#228 = APPROVAL_ROLE ( '' ) ;
#229 = EDGE_CURVE ( 'NONE', #70, #216, #246, .T. ) ;
#230 = DATE_TIME_ROLE ( 'classification_date' ) ;
#231 = APPROVAL_PERSON_ORGANIZATION ( #86, #212, #47 ) ;
#232 = VERTEX_POINT ( 'NONE', #18 ) ;
#233 = ADVANCED_FACE ( 'NONE', ( #101 ), #181, .T. ) ;
#234 = CIRCLE ( 'NONE', #112, 8.000000000000000000 ) ;
#235 = ORIENTED_EDGE ( 'NONE', *, *, #188, .T. ) ;
#236 = CARTESIAN_POINT ( 'NONE',  ( 11.00000000000000000, 1.347111479062088405E-15, 7.000000000000000000 ) ) ;
#237 = ORIENTED_EDGE ( 'NONE', *, *, #229, .T. ) ;
#238 = CARTESIAN_POINT ( 'NONE',  ( 0.000000000000000000, 0.000000000000000000, 400.0000000000000000 ) ) ;
#239 = ORIENTED_EDGE ( 'NONE', *, *, #240, .T. ) ;
#240 = EDGE_CURVE ( 'NONE', #77, #37, #234, .T. ) ;
#241 = DIRECTION ( 'NONE',  ( -0.000000000000000000, -0.000000000000000000, -1.000000000000000000 ) ) ;
#242 = VECTOR ( 'NONE', #103, 1000.000000000000000 ) ;
#243 = ORIENTED_EDGE ( 'NONE', *, *, #229, .F. ) ;
#244 = LOCAL_TIME ( 11, 39, 13.00000000000000000, #152 ) ;
#245 = DIRECTION ( 'NONE',  ( -0.000000000000000000, -0.000000000000000000, -1.000000000000000000 ) ) ;
#246 = LINE ( 'NONE', #236, #253 ) ;
#247 = DIRECTION ( 'NONE',  ( -0.000000000000000000, -0.000000000000000000, -1.000000000000000000 ) ) ;
#248 = ADVANCED_FACE ( 'NONE', ( #140 ), #38, .T. ) ;
#249 = PERSON_AND_ORGANIZATION_ROLE ( 'creator' ) ;
#250 = PERSON_AND_ORGANIZATION ( #207, #206 ) ;
#251 = COORDINATED_UNIVERSAL_TIME_OFFSET ( 1, 0, .AHEAD. ) ;
#252 = PERSON_AND_ORGANIZATION ( #207, #206 ) ;
#253 = VECTOR ( 'NONE', #122, 1000.000000000000000 ) ;
#254 = ADVANCED_FACE ( 'NONE', ( #185 ), #65, .T. ) ;
#255 = APPLICATION_CONTEXT ( 'configuration controlled 3d designs of mechanical parts and assemblies' ) ;
ENDSEC;
END-ISO-10303-21;
