ISO-10303-21;
HEADER;
FILE_DESCRIPTION (( 'STEP AP203' ),
    '1' );
FILE_NAME ('b209.STEP',
    '2022-07-07T12:58:09',
    ( '' ),
    ( '' ),
    'SwSTEP 2.0',
    'SolidWorks 2019',
    '' );
FILE_SCHEMA (( 'CONFIG_CONTROL_DESIGN' ));
ENDSEC;

DATA;
#1 = APPROVAL ( #31, 'NEURÈENÝ' ) ;
#2 = CARTESIAN_POINT ( 'NONE',  ( -1.000000000000000000, 0.000000000000000000, 317.0000000000000000 ) ) ;
#3 = DIRECTION ( 'NONE',  ( 1.000000000000000000, 0.000000000000000000, 0.000000000000000000 ) ) ;
#4 = SECURITY_CLASSIFICATION ( '', '', #84 ) ;
#5 = PLANE ( 'NONE',  #9 ) ;
#6 = FACE_OUTER_BOUND ( 'NONE', #7, .T. ) ;
#7 = EDGE_LOOP ( 'NONE', ( #226, #176, #16, #296 ) ) ;
#8 = MANIFOLD_SOLID_BREP ( 'Zaoblit1', #175 ) ;
#9 = AXIS2_PLACEMENT_3D ( 'NONE', #214, #217, #74 ) ;
#10 = ORIENTED_EDGE ( 'NONE', *, *, #221, .T. ) ;
#11 = ORIENTED_EDGE ( 'NONE', *, *, #299, .T. ) ;
#12 = ORIENTED_EDGE ( 'NONE', *, *, #152, .F. ) ;
#13 = PERSON_AND_ORGANIZATION_ROLE ( 'classification_officer' ) ;
#14 = APPLICATION_CONTEXT ( 'configuration controlled 3d designs of mechanical parts and assemblies' ) ;
#15 = LOCAL_TIME ( 14, 58, 9.000000000000000000, #240 ) ;
#16 = ORIENTED_EDGE ( 'NONE', *, *, #246, .T. ) ;
#17 = DIRECTION ( 'NONE',  ( -1.000000000000000000, 1.224646799147351975E-16, 0.000000000000000000 ) ) ;
#18 = CC_DESIGN_DATE_AND_TIME_ASSIGNMENT ( #255, #151, ( #101 ) ) ;
#19 = APPLICATION_PROTOCOL_DEFINITION ( 'international standard', 'config_control_design', 1994, #35 ) ;
#20 = CARTESIAN_POINT ( 'NONE',  ( 1.200000000000000178, 0.000000000000000000, 2.199999999999979750 ) ) ;
#21 = PERSON_AND_ORGANIZATION ( #297, #259 ) ;
#22 = CARTESIAN_POINT ( 'NONE',  ( 0.000000000000000000, 0.000000000000000000, 2.000000000000000000 ) ) ;
#23 = AXIS2_PLACEMENT_3D ( 'NONE', #133, #227, #109 ) ;
#24 = DIRECTION ( 'NONE',  ( 0.000000000000000000, 0.000000000000000000, 1.000000000000000000 ) ) ;
#25 = DIRECTION ( 'NONE',  ( 0.000000000000000000, 0.000000000000000000, 1.000000000000000000 ) ) ;
#26 = APPLICATION_PROTOCOL_DEFINITION ( 'international standard', 'config_control_design', 1994, #14 ) ;
#27 = CC_DESIGN_DATE_AND_TIME_ASSIGNMENT ( #111, #290, ( #4 ) ) ;
#28 = CARTESIAN_POINT ( 'NONE',  ( -2.000000000000000000, 0.000000000000000000, 0.000000000000000000 ) ) ;
#29 = CIRCLE ( 'NONE', #70, 1.000000000000000000 ) ;
#30 = DIRECTION ( 'NONE',  ( -0.000000000000000000, -0.000000000000000000, -1.000000000000000000 ) ) ;
#31 = APPROVAL_STATUS ( 'not_yet_approved' ) ;
#32 = EDGE_LOOP ( 'NONE', ( #245, #218 ) ) ;
#33 = LOCAL_TIME ( 14, 58, 9.000000000000000000, #170 ) ;
#34 = ORIENTED_EDGE ( 'NONE', *, *, #280, .T. ) ;
#35 = APPLICATION_CONTEXT ( 'configuration controlled 3d designs of mechanical parts and assemblies' ) ;
#36 = ORIENTED_EDGE ( 'NONE', *, *, #231, .F. ) ;
#37 = CALENDAR_DATE ( 2022, 7, 7 ) ;
#38 = DATE_AND_TIME ( #64, #15 ) ;
#39 = CC_DESIGN_PERSON_AND_ORGANIZATION_ASSIGNMENT ( #228, #56, ( #55 ) ) ;
#40 = CYLINDRICAL_SURFACE ( 'NONE', #23, 1.000000000000000000 ) ;
#41 = PERSON_AND_ORGANIZATION ( #297, #259 ) ;
#42 = DIRECTION ( 'NONE',  ( -0.000000000000000000, -0.000000000000000000, -1.000000000000000000 ) ) ;
#43 = ADVANCED_FACE ( 'NONE', ( #106, #197 ), #205, .T. ) ;
#44 = DIRECTION ( 'NONE',  ( 0.000000000000000000, 0.000000000000000000, 1.000000000000000000 ) ) ;
#45 = AXIS2_PLACEMENT_3D ( 'NONE', #306, #307, #161 ) ;
#46 = CARTESIAN_POINT ( 'NONE',  ( 0.000000000000000000, 0.000000000000000000, 2.000000000000000000 ) ) ;
#47 = CC_DESIGN_APPROVAL ( #211, ( #4 ) ) ;
#48 = DIRECTION ( 'NONE',  ( 1.000000000000000000, 0.000000000000000000, -0.000000000000000000 ) ) ;
#49 = DIRECTION ( 'NONE',  ( 0.000000000000000000, 0.000000000000000000, 1.000000000000000000 ) ) ;
#50 =( NAMED_UNIT ( * ) SI_UNIT ( $, .STERADIAN. ) SOLID_ANGLE_UNIT ( ) );
#51 = AXIS2_PLACEMENT_3D ( 'NONE', #20, #110, #281 ) ;
#52 = DIRECTION ( 'NONE',  ( 1.000000000000000000, 0.000000000000000000, 0.000000000000000000 ) ) ;
#53 = DIRECTION ( 'NONE',  ( -0.000000000000000000, -0.000000000000000000, -1.000000000000000000 ) ) ;
#54 = LINE ( 'NONE', #286, #198 ) ;
#55 = PRODUCT_DEFINITION_FORMATION_WITH_SPECIFIED_SOURCE ( 'LIBOVOLNÝ', '', #212, .NOT_KNOWN. ) ;
#56 = PERSON_AND_ORGANIZATION_ROLE ( 'creator' ) ;
#57 = ORIENTED_EDGE ( 'NONE', *, *, #299, .F. ) ;
#58 = EDGE_CURVE ( 'NONE', #222, #87, #75, .T. ) ;
#59 = AXIS2_PLACEMENT_3D ( 'NONE', #265, #49, #287 ) ;
#60 = EDGE_LOOP ( 'NONE', ( #10, #34 ) ) ;
#61 = PERSON_AND_ORGANIZATION ( #297, #259 ) ;
#62 = ORIENTED_EDGE ( 'NONE', *, *, #246, .F. ) ;
#63 = VERTEX_POINT ( 'NONE', #135 ) ;
#64 = CALENDAR_DATE ( 2022, 7, 7 ) ;
#65 =( GEOMETRIC_REPRESENTATION_CONTEXT ( 3 ) GLOBAL_UNCERTAINTY_ASSIGNED_CONTEXT ( ( #274 ) ) GLOBAL_UNIT_ASSIGNED_CONTEXT ( ( #96, #73, #50 ) ) REPRESENTATION_CONTEXT ( 'NONE', 'WORKASPACE' ) );
#66 = CARTESIAN_POINT ( 'NONE',  ( -1.000000000000000000, 0.000000000000000000, 2.199999999999979750 ) ) ;
#67 = PERSON_AND_ORGANIZATION ( #297, #259 ) ;
#68 = DIRECTION ( 'NONE',  ( -1.000000000000000000, 0.000000000000000000, 0.000000000000000000 ) ) ;
#69 = DIRECTION ( 'NONE',  ( 1.000000000000000000, 0.000000000000000000, 0.000000000000000000 ) ) ;
#70 = AXIS2_PLACEMENT_3D ( 'NONE', #138, #114, #95 ) ;
#71 = CARTESIAN_POINT ( 'NONE',  ( 0.000000000000000000, 0.000000000000000000, 0.000000000000000000 ) ) ;
#72 = AXIS2_PLACEMENT_3D ( 'NONE', #210, #117, #139 ) ;
#73 =( NAMED_UNIT ( * ) PLANE_ANGLE_UNIT ( ) SI_UNIT ( $, .RADIAN. ) );
#74 = DIRECTION ( 'NONE',  ( 1.000000000000000000, 0.000000000000000000, -0.000000000000000000 ) ) ;
#75 = CIRCLE ( 'NONE', #120, 2.000000000000000000 ) ;
#76 = CC_DESIGN_SECURITY_CLASSIFICATION ( #4, ( #55 ) ) ;
#77 = CARTESIAN_POINT ( 'NONE',  ( 0.000000000000000000, 0.000000000000000000, 2.000000000000000000 ) ) ;
#78 = APPROVAL_ROLE ( '' ) ;
#79 = EDGE_LOOP ( 'NONE', ( #241, #294, #248, #150 ) ) ;
#80 = APPROVAL ( #249, 'NEURÈENÝ' ) ;
#81 = VERTEX_POINT ( 'NONE', #229 ) ;
#82 = VERTEX_POINT ( 'NONE', #183 ) ;
#83 = AXIS2_PLACEMENT_3D ( 'NONE', #71, #282, #91 ) ;
#84 = SECURITY_CLASSIFICATION_LEVEL ( 'unclassified' ) ;
#85 = AXIS2_PLACEMENT_3D ( 'NONE', #77, #168, #191 ) ;
#86 = ORIENTED_EDGE ( 'NONE', *, *, #58, .F. ) ;
#87 = VERTEX_POINT ( 'NONE', #277 ) ;
#88 = FACE_OUTER_BOUND ( 'NONE', #243, .T. ) ;
#89 = CARTESIAN_POINT ( 'NONE',  ( 0.000000000000000000, 0.000000000000000000, 317.0000000000000000 ) ) ;
#90 = PRODUCT_RELATED_PRODUCT_CATEGORY ( 'detail', '', ( #212 ) ) ;
#91 = DIRECTION ( 'NONE',  ( 1.000000000000000000, 0.000000000000000000, 0.000000000000000000 ) ) ;
#92 = CARTESIAN_POINT ( 'NONE',  ( -1.200000000000000178, 1.469576158976823799E-16, 2.199999999999979750 ) ) ;
#93 = ADVANCED_FACE ( 'NONE', ( #206 ), #136, .F. ) ;
#94 = AXIS2_PLACEMENT_3D ( 'NONE', #302, #24, #207 ) ;
#95 = DIRECTION ( 'NONE',  ( 1.000000000000000000, 0.000000000000000000, 0.000000000000000000 ) ) ;
#96 =( LENGTH_UNIT ( ) NAMED_UNIT ( * ) SI_UNIT ( .MILLI., .METRE. ) );
#97 = MECHANICAL_CONTEXT ( 'NONE', #14, 'mechanical' ) ;
#98 = CIRCLE ( 'NONE', #149, 1.000000000000000000 ) ;
#99 = CARTESIAN_POINT ( 'NONE',  ( 1.200000000000000178, 0.000000000000000000, 1.999999999999989564 ) ) ;
#100 = DIRECTION ( 'NONE',  ( 0.000000000000000000, 0.000000000000000000, 1.000000000000000000 ) ) ;
#101 = PRODUCT_DEFINITION ( 'NEZNÁMÝ', '', #55, #154 ) ;
#102 = ORIENTED_EDGE ( 'NONE', *, *, #142, .T. ) ;
#103 = ORIENTED_EDGE ( 'NONE', *, *, #116, .T. ) ;
#104 = ORIENTED_EDGE ( 'NONE', *, *, #124, .F. ) ;
#105 = CALENDAR_DATE ( 2022, 7, 7 ) ;
#106 = FACE_BOUND ( 'NONE', #60, .T. ) ;
#107 = COORDINATED_UNIVERSAL_TIME_OFFSET ( 1, 0, .AHEAD. ) ;
#108 = CIRCLE ( 'NONE', #59, 1.000000000000000000 ) ;
#109 = DIRECTION ( 'NONE',  ( -1.000000000000000000, 0.000000000000000000, 0.000000000000000000 ) ) ;
#110 = DIRECTION ( 'NONE',  ( 0.000000000000000000, -1.000000000000000000, 0.000000000000000000 ) ) ;
#111 = DATE_AND_TIME ( #105, #293 ) ;
#112 = DIRECTION ( 'NONE',  ( -0.000000000000000000, -0.000000000000000000, -1.000000000000000000 ) ) ;
#113 = CARTESIAN_POINT ( 'NONE',  ( 0.000000000000000000, 0.000000000000000000, 2.000000000000000000 ) ) ;
#114 = DIRECTION ( 'NONE',  ( 0.000000000000000000, 0.000000000000000000, 1.000000000000000000 ) ) ;
#115 = DIRECTION ( 'NONE',  ( -1.000000000000000000, 0.000000000000000000, 0.000000000000000000 ) ) ;
#116 = EDGE_CURVE ( 'NONE', #81, #295, #126, .T. ) ;
#117 = DIRECTION ( 'NONE',  ( -0.000000000000000000, -0.000000000000000000, -1.000000000000000000 ) ) ;
#118 = DIRECTION ( 'NONE',  ( -0.000000000000000000, -0.000000000000000000, -1.000000000000000000 ) ) ;
#119 = CYLINDRICAL_SURFACE ( 'NONE', #263, 2.000000000000000000 ) ;
#120 = AXIS2_PLACEMENT_3D ( 'NONE', #113, #25, #260 ) ;
#121 = ADVANCED_FACE ( 'NONE', ( #234 ), #158, .F. ) ;
#122 = FACE_OUTER_BOUND ( 'NONE', #32, .T. ) ;
#123 = APPROVAL_DATE_TIME ( #38, #211 ) ;
#124 = EDGE_CURVE ( 'NONE', #174, #63, #215, .T. ) ;
#125 = EDGE_LOOP ( 'NONE', ( #12, #147, #129, #200 ) ) ;
#126 = CIRCLE ( 'NONE', #45, 2.000000000000000000 ) ;
#127 = APPROVAL_PERSON_ORGANIZATION ( #269, #1, #78 ) ;
#128 = EDGE_LOOP ( 'NONE', ( #273, #195 ) ) ;
#129 = ORIENTED_EDGE ( 'NONE', *, *, #221, .F. ) ;
#130 = PERSON_AND_ORGANIZATION ( #297, #259 ) ;
#131 = ORIENTED_EDGE ( 'NONE', *, *, #252, .T. ) ;
#132 = PERSON_AND_ORGANIZATION_ROLE ( 'design_supplier' ) ;
#133 = CARTESIAN_POINT ( 'NONE',  ( 0.000000000000000000, 0.000000000000000000, 317.0000000000000000 ) ) ;
#134 = DATE_AND_TIME ( #160, #33 ) ;
#135 = CARTESIAN_POINT ( 'NONE',  ( -1.200000000000000178, 1.469576158976823799E-16, 1.999999999999989564 ) ) ;
#136 = TOROIDAL_SURFACE ( 'NONE', #262, 1.200000000000000178, 0.2000000000000000111 ) ;
#137 = LINE ( 'NONE', #264, #268 ) ;
#138 = CARTESIAN_POINT ( 'NONE',  ( 0.000000000000000000, 0.000000000000000000, 2.199999999999979750 ) ) ;
#139 = DIRECTION ( 'NONE',  ( 1.000000000000000000, 0.000000000000000000, 0.000000000000000000 ) ) ;
#140 = CARTESIAN_POINT ( 'NONE',  ( -1.000000000000000000, 0.000000000000000000, 317.0000000000000000 ) ) ;
#141 = DIRECTION ( 'NONE',  ( 0.000000000000000000, 0.000000000000000000, 1.000000000000000000 ) ) ;
#142 = EDGE_CURVE ( 'NONE', #295, #81, #203, .T. ) ;
#143 = EDGE_CURVE ( 'NONE', #82, #270, #163, .T. ) ;
#144 = DIRECTION ( 'NONE',  ( -0.000000000000000000, -0.000000000000000000, -1.000000000000000000 ) ) ;
#145 = CC_DESIGN_APPROVAL ( #80, ( #55 ) ) ;
#146 = APPROVAL_ROLE ( '' ) ;
#147 = ORIENTED_EDGE ( 'NONE', *, *, #124, .T. ) ;
#148 = EDGE_LOOP ( 'NONE', ( #86, #224, #103, #173 ) ) ;
#149 = AXIS2_PLACEMENT_3D ( 'NONE', #236, #100, #52 ) ;
#150 = ORIENTED_EDGE ( 'NONE', *, *, #152, .T. ) ;
#151 = DATE_TIME_ROLE ( 'creation_date' ) ;
#152 = EDGE_CURVE ( 'NONE', #174, #178, #29, .T. ) ;
#153 = ADVANCED_BREP_SHAPE_REPRESENTATION ( 'b209', ( #8, #233 ), #65 ) ;
#154 = DESIGN_CONTEXT ( 'detailed design', #35, 'design' ) ;
#155 = CALENDAR_DATE ( 2022, 7, 7 ) ;
#156 = CC_DESIGN_PERSON_AND_ORGANIZATION_ASSIGNMENT ( #169, #266, ( #212 ) ) ;
#157 = DIRECTION ( 'NONE',  ( 1.224646799147353207E-16, 1.000000000000000000, -0.000000000000000000 ) ) ;
#158 = TOROIDAL_SURFACE ( 'NONE', #94, 1.200000000000000178, 0.2000000000000000111 ) ;
#159 = LINE ( 'NONE', #253, #219 ) ;
#160 = CALENDAR_DATE ( 2022, 7, 7 ) ;
#161 = DIRECTION ( 'NONE',  ( 1.000000000000000000, 0.000000000000000000, 0.000000000000000000 ) ) ;
#162 = CARTESIAN_POINT ( 'NONE',  ( 2.000000000000000000, 2.449293598294706414E-16, 2.000000000000000000 ) ) ;
#163 = CIRCLE ( 'NONE', #193, 1.000000000000000000 ) ;
#164 = DIRECTION ( 'NONE',  ( 0.000000000000000000, 0.000000000000000000, 1.000000000000000000 ) ) ;
#165 = CYLINDRICAL_SURFACE ( 'NONE', #216, 1.000000000000000000 ) ;
#166 = VECTOR ( 'NONE', #144, 1000.000000000000000 ) ;
#167 = CARTESIAN_POINT ( 'NONE',  ( 0.000000000000000000, 0.000000000000000000, 2.000000000000000000 ) ) ;
#168 = DIRECTION ( 'NONE',  ( 0.000000000000000000, 0.000000000000000000, 1.000000000000000000 ) ) ;
#169 = PERSON_AND_ORGANIZATION ( #297, #259 ) ;
#170 = COORDINATED_UNIVERSAL_TIME_OFFSET ( 1, 0, .AHEAD. ) ;
#171 = CC_DESIGN_APPROVAL ( #1, ( #101 ) ) ;
#172 = ADVANCED_FACE ( 'NONE', ( #251 ), #40, .T. ) ;
#173 = ORIENTED_EDGE ( 'NONE', *, *, #252, .F. ) ;
#174 = VERTEX_POINT ( 'NONE', #66 ) ;
#175 = CLOSED_SHELL ( 'NONE', ( #93, #267, #285, #179, #43, #254, #172, #208, #121 ) ) ;
#176 = ORIENTED_EDGE ( 'NONE', *, *, #190, .T. ) ;
#177 = AXIS2_PLACEMENT_3D ( 'NONE', #22, #112, #69 ) ;
#178 = VERTEX_POINT ( 'NONE', #201 ) ;
#179 = ADVANCED_FACE ( 'NONE', ( #88 ), #184, .T. ) ;
#180 = DIRECTION ( 'NONE',  ( -0.000000000000000000, -0.000000000000000000, -1.000000000000000000 ) ) ;
#181 = AXIS2_PLACEMENT_3D ( 'NONE', #256, #44, #232 ) ;
#182 = CIRCLE ( 'NONE', #51, 0.2000000000000000944 ) ;
#183 = CARTESIAN_POINT ( 'NONE',  ( 1.000000000000000000, 1.224646799147353207E-16, 317.0000000000000000 ) ) ;
#184 = CYLINDRICAL_SURFACE ( 'NONE', #189, 2.000000000000000000 ) ;
#185 = DIRECTION ( 'NONE',  ( 1.000000000000000000, 0.000000000000000000, 0.000000000000000000 ) ) ;
#186 = CARTESIAN_POINT ( 'NONE',  ( 0.000000000000000000, 0.000000000000000000, 2.199999999999979750 ) ) ;
#187 = FACE_OUTER_BOUND ( 'NONE', #148, .T. ) ;
#188 = CARTESIAN_POINT ( 'NONE',  ( 0.000000000000000000, 0.000000000000000000, 0.000000000000000000 ) ) ;
#189 = AXIS2_PLACEMENT_3D ( 'NONE', #46, #180, #68 ) ;
#190 = EDGE_CURVE ( 'NONE', #82, #178, #159, .T. ) ;
#191 = DIRECTION ( 'NONE',  ( 1.000000000000000000, 0.000000000000000000, 0.000000000000000000 ) ) ;
#192 = EDGE_CURVE ( 'NONE', #178, #272, #182, .T. ) ;
#193 = AXIS2_PLACEMENT_3D ( 'NONE', #89, #164, #258 ) ;
#194 = ORIENTED_EDGE ( 'NONE', *, *, #280, .F. ) ;
#195 = ORIENTED_EDGE ( 'NONE', *, *, #143, .T. ) ;
#196 = APPROVAL_DATE_TIME ( #278, #1 ) ;
#197 = FACE_OUTER_BOUND ( 'NONE', #247, .T. ) ;
#198 = VECTOR ( 'NONE', #261, 1000.000000000000000 ) ;
#199 = APPROVAL_STATUS ( 'not_yet_approved' ) ;
#200 = ORIENTED_EDGE ( 'NONE', *, *, #192, .F. ) ;
#201 = CARTESIAN_POINT ( 'NONE',  ( 1.000000000000000000, 1.224646799147353207E-16, 2.199999999999979750 ) ) ;
#202 = FACE_OUTER_BOUND ( 'NONE', #128, .T. ) ;
#203 = CIRCLE ( 'NONE', #83, 2.000000000000000000 ) ;
#204 = APPROVAL_PERSON_ORGANIZATION ( #67, #211, #146 ) ;
#205 = PLANE ( 'NONE',  #250 ) ;
#206 = FACE_OUTER_BOUND ( 'NONE', #125, .T. ) ;
#207 = DIRECTION ( 'NONE',  ( 1.000000000000000000, 0.000000000000000000, 0.000000000000000000 ) ) ;
#208 = ADVANCED_FACE ( 'NONE', ( #202 ), #304, .T. ) ;
#209 = LOCAL_TIME ( 14, 58, 9.000000000000000000, #230 ) ;
#210 = CARTESIAN_POINT ( 'NONE',  ( 0.000000000000000000, 0.000000000000000000, 2.000000000000000000 ) ) ;
#211 = APPROVAL ( #199, 'NEURÈENÝ' ) ;
#212 = PRODUCT ( 'b209', 'b209', '', ( #97 ) ) ;
#213 = DIRECTION ( 'NONE',  ( -1.000000000000000000, 0.000000000000000000, 0.000000000000000000 ) ) ;
#214 = CARTESIAN_POINT ( 'NONE',  ( 0.000000000000000000, 0.000000000000000000, 0.000000000000000000 ) ) ;
#215 = CIRCLE ( 'NONE', #303, 0.2000000000000000944 ) ;
#216 = AXIS2_PLACEMENT_3D ( 'NONE', #239, #53, #213 ) ;
#217 = DIRECTION ( 'NONE',  ( 0.000000000000000000, 0.000000000000000000, 1.000000000000000000 ) ) ;
#218 = ORIENTED_EDGE ( 'NONE', *, *, #116, .F. ) ;
#219 = VECTOR ( 'NONE', #42, 1000.000000000000000 ) ;
#220 = EDGE_LOOP ( 'NONE', ( #104, #62, #275, #194 ) ) ;
#221 = EDGE_CURVE ( 'NONE', #272, #63, #237, .T. ) ;
#222 = VERTEX_POINT ( 'NONE', #162 ) ;
#223 = PERSON_AND_ORGANIZATION_ROLE ( 'creator' ) ;
#224 = ORIENTED_EDGE ( 'NONE', *, *, #231, .T. ) ;
#225 = APPROVAL_ROLE ( '' ) ;
#226 = ORIENTED_EDGE ( 'NONE', *, *, #143, .F. ) ;
#227 = DIRECTION ( 'NONE',  ( -0.000000000000000000, -0.000000000000000000, -1.000000000000000000 ) ) ;
#228 = PERSON_AND_ORGANIZATION ( #297, #259 ) ;
#229 = CARTESIAN_POINT ( 'NONE',  ( 2.000000000000000000, 2.449293598294706414E-16, 0.000000000000000000 ) ) ;
#230 = COORDINATED_UNIVERSAL_TIME_OFFSET ( 1, 0, .AHEAD. ) ;
#231 = EDGE_CURVE ( 'NONE', #222, #81, #137, .T. ) ;
#232 = DIRECTION ( 'NONE',  ( 1.000000000000000000, 0.000000000000000000, -0.000000000000000000 ) ) ;
#233 = AXIS2_PLACEMENT_3D ( 'NONE', #188, #141, #3 ) ;
#234 = FACE_OUTER_BOUND ( 'NONE', #220, .T. ) ;
#235 = DIRECTION ( 'NONE',  ( 0.000000000000000000, 0.000000000000000000, 1.000000000000000000 ) ) ;
#236 = CARTESIAN_POINT ( 'NONE',  ( 0.000000000000000000, 0.000000000000000000, 317.0000000000000000 ) ) ;
#237 = CIRCLE ( 'NONE', #177, 1.200000000000000178 ) ;
#238 = LINE ( 'NONE', #140, #166 ) ;
#239 = CARTESIAN_POINT ( 'NONE',  ( 0.000000000000000000, 0.000000000000000000, 317.0000000000000000 ) ) ;
#240 = COORDINATED_UNIVERSAL_TIME_OFFSET ( 1, 0, .AHEAD. ) ;
#241 = ORIENTED_EDGE ( 'NONE', *, *, #190, .F. ) ;
#242 = CC_DESIGN_PERSON_AND_ORGANIZATION_ASSIGNMENT ( #21, #132, ( #55 ) ) ;
#243 = EDGE_LOOP ( 'NONE', ( #36, #57, #131, #102 ) ) ;
#244 = CIRCLE ( 'NONE', #72, 1.200000000000000178 ) ;
#245 = ORIENTED_EDGE ( 'NONE', *, *, #142, .F. ) ;
#246 = EDGE_CURVE ( 'NONE', #178, #174, #108, .T. ) ;
#247 = EDGE_LOOP ( 'NONE', ( #11, #301 ) ) ;
#248 = ORIENTED_EDGE ( 'NONE', *, *, #288, .T. ) ;
#249 = APPROVAL_STATUS ( 'not_yet_approved' ) ;
#250 = AXIS2_PLACEMENT_3D ( 'NONE', #279, #235, #48 ) ;
#251 = FACE_OUTER_BOUND ( 'NONE', #79, .T. ) ;
#252 = EDGE_CURVE ( 'NONE', #87, #295, #54, .T. ) ;
#253 = CARTESIAN_POINT ( 'NONE',  ( 1.000000000000000000, 1.224646799147353207E-16, 317.0000000000000000 ) ) ;
#254 = ADVANCED_FACE ( 'NONE', ( #122 ), #5, .F. ) ;
#255 = DATE_AND_TIME ( #37, #209 ) ;
#256 = CARTESIAN_POINT ( 'NONE',  ( 0.000000000000000000, 0.000000000000000000, 317.0000000000000000 ) ) ;
#257 = PRODUCT_DEFINITION_SHAPE ( 'NONE', 'NONE',  #101 ) ;
#258 = DIRECTION ( 'NONE',  ( 1.000000000000000000, 0.000000000000000000, 0.000000000000000000 ) ) ;
#259 = ORGANIZATION ( 'NEURÈENÝ', 'NEURÈENÝ', '' ) ;
#260 = DIRECTION ( 'NONE',  ( 1.000000000000000000, 0.000000000000000000, 0.000000000000000000 ) ) ;
#261 = DIRECTION ( 'NONE',  ( -0.000000000000000000, -0.000000000000000000, -1.000000000000000000 ) ) ;
#262 = AXIS2_PLACEMENT_3D ( 'NONE', #186, #284, #185 ) ;
#263 = AXIS2_PLACEMENT_3D ( 'NONE', #167, #30, #115 ) ;
#264 = CARTESIAN_POINT ( 'NONE',  ( 2.000000000000000000, 2.449293598294706414E-16, 2.000000000000000000 ) ) ;
#265 = CARTESIAN_POINT ( 'NONE',  ( 0.000000000000000000, 0.000000000000000000, 2.199999999999979750 ) ) ;
#266 = PERSON_AND_ORGANIZATION_ROLE ( 'design_owner' ) ;
#267 = ADVANCED_FACE ( 'NONE', ( #6 ), #165, .T. ) ;
#268 = VECTOR ( 'NONE', #118, 1000.000000000000000 ) ;
#269 = PERSON_AND_ORGANIZATION ( #297, #259 ) ;
#270 = VERTEX_POINT ( 'NONE', #2 ) ;
#271 = CIRCLE ( 'NONE', #85, 2.000000000000000000 ) ;
#272 = VERTEX_POINT ( 'NONE', #99 ) ;
#273 = ORIENTED_EDGE ( 'NONE', *, *, #289, .T. ) ;
#274 = UNCERTAINTY_MEASURE_WITH_UNIT (LENGTH_MEASURE( 1.000000000000000082E-05 ), #96, 'distance_accuracy_value', 'NONE');
#275 = ORIENTED_EDGE ( 'NONE', *, *, #192, .T. ) ;
#276 = COORDINATED_UNIVERSAL_TIME_OFFSET ( 1, 0, .AHEAD. ) ;
#277 = CARTESIAN_POINT ( 'NONE',  ( -2.000000000000000000, 0.000000000000000000, 2.000000000000000000 ) ) ;
#278 = DATE_AND_TIME ( #155, #283 ) ;
#279 = CARTESIAN_POINT ( 'NONE',  ( 0.000000000000000000, 0.000000000000000000, 2.000000000000000000 ) ) ;
#280 = EDGE_CURVE ( 'NONE', #63, #272, #244, .T. ) ;
#281 = DIRECTION ( 'NONE',  ( 0.000000000000000000, 0.000000000000000000, -1.000000000000000000 ) ) ;
#282 = DIRECTION ( 'NONE',  ( 0.000000000000000000, 0.000000000000000000, 1.000000000000000000 ) ) ;
#283 = LOCAL_TIME ( 14, 58, 9.000000000000000000, #276 ) ;
#284 = DIRECTION ( 'NONE',  ( 0.000000000000000000, 0.000000000000000000, 1.000000000000000000 ) ) ;
#285 = ADVANCED_FACE ( 'NONE', ( #187 ), #119, .T. ) ;
#286 = CARTESIAN_POINT ( 'NONE',  ( -2.000000000000000000, 0.000000000000000000, 2.000000000000000000 ) ) ;
#287 = DIRECTION ( 'NONE',  ( 1.000000000000000000, 0.000000000000000000, 0.000000000000000000 ) ) ;
#288 = EDGE_CURVE ( 'NONE', #270, #174, #238, .T. ) ;
#289 = EDGE_CURVE ( 'NONE', #270, #82, #98, .T. ) ;
#290 = DATE_TIME_ROLE ( 'classification_date' ) ;
#291 = CC_DESIGN_PERSON_AND_ORGANIZATION_ASSIGNMENT ( #61, #13, ( #4 ) ) ;
#292 = CC_DESIGN_PERSON_AND_ORGANIZATION_ASSIGNMENT ( #130, #223, ( #101 ) ) ;
#293 = LOCAL_TIME ( 14, 58, 9.000000000000000000, #107 ) ;
#294 = ORIENTED_EDGE ( 'NONE', *, *, #289, .F. ) ;
#295 = VERTEX_POINT ( 'NONE', #28 ) ;
#296 = ORIENTED_EDGE ( 'NONE', *, *, #288, .F. ) ;
#297 = PERSON ( 'NEURÈENÝ', 'NEURÈENÝ', 'NEURÈENÝ', ('NEURÈENÝ'), ('NEURÈENÝ'), ('NEURÈENÝ') ) ;
#298 = APPROVAL_DATE_TIME ( #134, #80 ) ;
#299 = EDGE_CURVE ( 'NONE', #87, #222, #271, .T. ) ;
#300 = SHAPE_DEFINITION_REPRESENTATION ( #257, #153 ) ;
#301 = ORIENTED_EDGE ( 'NONE', *, *, #58, .T. ) ;
#302 = CARTESIAN_POINT ( 'NONE',  ( 0.000000000000000000, 0.000000000000000000, 2.199999999999979750 ) ) ;
#303 = AXIS2_PLACEMENT_3D ( 'NONE', #92, #157, #17 ) ;
#304 = PLANE ( 'NONE',  #181 ) ;
#305 = APPROVAL_PERSON_ORGANIZATION ( #41, #80, #225 ) ;
#306 = CARTESIAN_POINT ( 'NONE',  ( 0.000000000000000000, 0.000000000000000000, 0.000000000000000000 ) ) ;
#307 = DIRECTION ( 'NONE',  ( 0.000000000000000000, 0.000000000000000000, 1.000000000000000000 ) ) ;
ENDSEC;
END-ISO-10303-21;
