ISO-10303-21;
HEADER;
FILE_DESCRIPTION (( 'STEP AP203' ),
    '1' );
FILE_NAME ('4e30.STEP',
    '2023-02-12T11:31:26',
    ( '' ),
    ( '' ),
    'SwSTEP 2.0',
    'SolidWorks 2019',
    '' );
FILE_SCHEMA (( 'CONFIG_CONTROL_DESIGN' ));
ENDSEC;

DATA;
#1 = EDGE_LOOP ( 'NONE', ( #173, #64, #49, #19 ) ) ;
#2 = DIRECTION ( 'NONE',  ( -0.000000000000000000, -0.000000000000000000, -1.000000000000000000 ) ) ;
#3 = APPROVAL ( #241, 'NEURÈENÝ' ) ;
#4 = APPROVAL_DATE_TIME ( #34, #61 ) ;
#5 = VERTEX_POINT ( 'NONE', #99 ) ;
#6 = DIRECTION ( 'NONE',  ( -1.000000000000000000, 0.000000000000000000, 0.000000000000000000 ) ) ;
#7 = AXIS2_PLACEMENT_3D ( 'NONE', #33, #18, #131 ) ;
#8 = EDGE_CURVE ( 'NONE', #229, #59, #255, .T. ) ;
#9 = CARTESIAN_POINT ( 'NONE',  ( 0.000000000000000000, 0.000000000000000000, 160.0000000000000000 ) ) ;
#10 = DIRECTION ( 'NONE',  ( -1.000000000000000000, 0.000000000000000000, 0.000000000000000000 ) ) ;
#11 = CARTESIAN_POINT ( 'NONE',  ( -3.250000000000000444, 0.000000000000000000, 160.0000000000000000 ) ) ;
#12 = DIRECTION ( 'NONE',  ( -1.000000000000000000, 0.000000000000000000, 0.000000000000000000 ) ) ;
#13 = DATE_AND_TIME ( #45, #16 ) ;
#14 = CARTESIAN_POINT ( 'NONE',  ( -3.250000000000000444, 0.000000000000000000, 160.0000000000000000 ) ) ;
#15 = EDGE_CURVE ( 'NONE', #141, #109, #212, .T. ) ;
#16 = LOCAL_TIME ( 12, 31, 26.00000000000000000, #92 ) ;
#17 = DIRECTION ( 'NONE',  ( 1.000000000000000000, 0.000000000000000000, -0.000000000000000000 ) ) ;
#18 = DIRECTION ( 'NONE',  ( 0.000000000000000000, 0.000000000000000000, 1.000000000000000000 ) ) ;
#19 = ORIENTED_EDGE ( 'NONE', *, *, #8, .F. ) ;
#20 = EDGE_CURVE ( 'NONE', #165, #5, #83, .T. ) ;
#21 = SHAPE_DEFINITION_REPRESENTATION ( #198, #85 ) ;
#22 = MECHANICAL_CONTEXT ( 'NONE', #237, 'mechanical' ) ;
#23 = DESIGN_CONTEXT ( 'detailed design', #248, 'design' ) ;
#24 = CC_DESIGN_PERSON_AND_ORGANIZATION_ASSIGNMENT ( #177, #158, ( #56 ) ) ;
#25 =( LENGTH_UNIT ( ) NAMED_UNIT ( * ) SI_UNIT ( .MILLI., .METRE. ) );
#26 = PERSON_AND_ORGANIZATION ( #94, #63 ) ;
#27 = PRODUCT ( '4e30', '4e30', '', ( #22 ) ) ;
#28 = DIRECTION ( 'NONE',  ( 1.000000000000000000, 0.000000000000000000, 0.000000000000000000 ) ) ;
#29 = CC_DESIGN_APPROVAL ( #3, ( #195 ) ) ;
#30 = CARTESIAN_POINT ( 'NONE',  ( 0.000000000000000000, 0.000000000000000000, 160.0000000000000000 ) ) ;
#31 = PERSON_AND_ORGANIZATION_ROLE ( 'design_owner' ) ;
#32 = CC_DESIGN_DATE_AND_TIME_ASSIGNMENT ( #13, #203, ( #195 ) ) ;
#33 = CARTESIAN_POINT ( 'NONE',  ( 0.000000000000000000, 0.000000000000000000, 160.0000000000000000 ) ) ;
#34 = DATE_AND_TIME ( #115, #135 ) ;
#35 = COORDINATED_UNIVERSAL_TIME_OFFSET ( 1, 0, .AHEAD. ) ;
#36 = CARTESIAN_POINT ( 'NONE',  ( 0.000000000000000000, 0.000000000000000000, 5.000000000000000000 ) ) ;
#37 = EDGE_LOOP ( 'NONE', ( #100, #114 ) ) ;
#38 = AXIS2_PLACEMENT_3D ( 'NONE', #208, #171, #254 ) ;
#39 = DIRECTION ( 'NONE',  ( 0.000000000000000000, 0.000000000000000000, 1.000000000000000000 ) ) ;
#40 = LOCAL_TIME ( 12, 31, 26.00000000000000000, #88 ) ;
#41 = DIRECTION ( 'NONE',  ( 0.000000000000000000, 0.000000000000000000, 1.000000000000000000 ) ) ;
#42 = EDGE_LOOP ( 'NONE', ( #245, #79, #82, #170 ) ) ;
#43 = EDGE_CURVE ( 'NONE', #229, #52, #213, .T. ) ;
#44 = CARTESIAN_POINT ( 'NONE',  ( 3.250000000000000444, 3.980102097228898231E-16, 160.0000000000000000 ) ) ;
#45 = CALENDAR_DATE ( 2023, 12, 2 ) ;
#46 = ORIENTED_EDGE ( 'NONE', *, *, #43, .F. ) ;
#47 = ORIENTED_EDGE ( 'NONE', *, *, #156, .T. ) ;
#48 = FACE_OUTER_BOUND ( 'NONE', #87, .T. ) ;
#49 = ORIENTED_EDGE ( 'NONE', *, *, #140, .T. ) ;
#50 = PERSON_AND_ORGANIZATION_ROLE ( 'creator' ) ;
#51 = FACE_OUTER_BOUND ( 'NONE', #1, .T. ) ;
#52 = VERTEX_POINT ( 'NONE', #188 ) ;
#53 = EDGE_LOOP ( 'NONE', ( #176, #124 ) ) ;
#54 = CARTESIAN_POINT ( 'NONE',  ( 3.250000000000000444, 3.980102097228898231E-16, 5.000000000000000000 ) ) ;
#55 = PERSON_AND_ORGANIZATION_ROLE ( 'classification_officer' ) ;
#56 = PRODUCT_DEFINITION_FORMATION_WITH_SPECIFIED_SOURCE ( 'LIBOVOLNÝ', '', #27, .NOT_KNOWN. ) ;
#57 = DATE_TIME_ROLE ( 'classification_date' ) ;
#58 = EDGE_CURVE ( 'NONE', #52, #229, #111, .T. ) ;
#59 = VERTEX_POINT ( 'NONE', #230 ) ;
#60 = MANIFOLD_SOLID_BREP ( 'Pøidat vysunutím3', #233 ) ;
#61 = APPROVAL ( #190, 'NEURÈENÝ' ) ;
#62 = AXIS2_PLACEMENT_3D ( 'NONE', #36, #194, #6 ) ;
#63 = ORGANIZATION ( 'NEURÈENÝ', 'NEURÈENÝ', '' ) ;
#64 = ORIENTED_EDGE ( 'NONE', *, *, #161, .T. ) ;
#65 = SECURITY_CLASSIFICATION_LEVEL ( 'unclassified' ) ;
#66 = FACE_OUTER_BOUND ( 'NONE', #37, .T. ) ;
#67 = ORIENTED_EDGE ( 'NONE', *, *, #172, .F. ) ;
#68 = CARTESIAN_POINT ( 'NONE',  ( 0.000000000000000000, 0.000000000000000000, 5.000000000000000000 ) ) ;
#69 = CALENDAR_DATE ( 2023, 12, 2 ) ;
#70 = ADVANCED_FACE ( 'NONE', ( #112, #48 ), #77, .T. ) ;
#71 = CIRCLE ( 'NONE', #223, 6.000000000000000888 ) ;
#72 = CYLINDRICAL_SURFACE ( 'NONE', #175, 3.250000000000000444 ) ;
#73 = ADVANCED_FACE ( 'NONE', ( #51 ), #186, .T. ) ;
#74 = APPROVAL_DATE_TIME ( #179, #3 ) ;
#75 = DIRECTION ( 'NONE',  ( 1.000000000000000000, 0.000000000000000000, 0.000000000000000000 ) ) ;
#76 = CIRCLE ( 'NONE', #107, 6.000000000000000888 ) ;
#77 = PLANE ( 'NONE',  #105 ) ;
#78 = CARTESIAN_POINT ( 'NONE',  ( 0.000000000000000000, 0.000000000000000000, 5.000000000000000000 ) ) ;
#79 = ORIENTED_EDGE ( 'NONE', *, *, #206, .F. ) ;
#80 =( NAMED_UNIT ( * ) SI_UNIT ( $, .STERADIAN. ) SOLID_ANGLE_UNIT ( ) );
#81 = VECTOR ( 'NONE', #2, 1000.000000000000000 ) ;
#82 = ORIENTED_EDGE ( 'NONE', *, *, #20, .T. ) ;
#83 = LINE ( 'NONE', #253, #242 ) ;
#84 = FACE_OUTER_BOUND ( 'NONE', #42, .T. ) ;
#85 = ADVANCED_BREP_SHAPE_REPRESENTATION ( '4e30', ( #60, #210 ), #160 ) ;
#86 = EDGE_CURVE ( 'NONE', #59, #90, #106, .T. ) ;
#87 = EDGE_LOOP ( 'NONE', ( #152, #47 ) ) ;
#88 = COORDINATED_UNIVERSAL_TIME_OFFSET ( 1, 0, .AHEAD. ) ;
#89 = APPROVAL_DATE_TIME ( #221, #225 ) ;
#90 = VERTEX_POINT ( 'NONE', #54 ) ;
#91 = DIRECTION ( 'NONE',  ( 1.000000000000000000, 0.000000000000000000, 0.000000000000000000 ) ) ;
#92 = COORDINATED_UNIVERSAL_TIME_OFFSET ( 1, 0, .AHEAD. ) ;
#93 = CC_DESIGN_APPROVAL ( #225, ( #56 ) ) ;
#94 = PERSON ( 'NEURÈENÝ', 'NEURÈENÝ', 'NEURÈENÝ', ('NEURÈENÝ'), ('NEURÈENÝ'), ('NEURÈENÝ') ) ;
#95 = DIRECTION ( 'NONE',  ( 0.000000000000000000, 0.000000000000000000, 1.000000000000000000 ) ) ;
#96 = CARTESIAN_POINT ( 'NONE',  ( 6.000000000000000888, 7.347880794884120722E-16, 5.000000000000000000 ) ) ;
#97 = APPLICATION_PROTOCOL_DEFINITION ( 'international standard', 'config_control_design', 1994, #248 ) ;
#98 = ORIENTED_EDGE ( 'NONE', *, *, #20, .F. ) ;
#99 = CARTESIAN_POINT ( 'NONE',  ( -6.000000000000000888, 0.000000000000000000, 0.000000000000000000 ) ) ;
#100 = ORIENTED_EDGE ( 'NONE', *, *, #43, .T. ) ;
#101 = PLANE ( 'NONE',  #180 ) ;
#102 = AXIS2_PLACEMENT_3D ( 'NONE', #68, #228, #10 ) ;
#103 = COORDINATED_UNIVERSAL_TIME_OFFSET ( 1, 0, .AHEAD. ) ;
#104 = DATE_AND_TIME ( #155, #235 ) ;
#105 = AXIS2_PLACEMENT_3D ( 'NONE', #126, #147, #17 ) ;
#106 = CIRCLE ( 'NONE', #129, 3.250000000000000444 ) ;
#107 = AXIS2_PLACEMENT_3D ( 'NONE', #246, #108, #121 ) ;
#108 = DIRECTION ( 'NONE',  ( 0.000000000000000000, 0.000000000000000000, 1.000000000000000000 ) ) ;
#109 = VERTEX_POINT ( 'NONE', #209 ) ;
#110 = ADVANCED_FACE ( 'NONE', ( #113 ), #101, .F. ) ;
#111 = CIRCLE ( 'NONE', #7, 3.250000000000000444 ) ;
#112 = FACE_BOUND ( 'NONE', #53, .T. ) ;
#113 = FACE_OUTER_BOUND ( 'NONE', #159, .T. ) ;
#114 = ORIENTED_EDGE ( 'NONE', *, *, #58, .T. ) ;
#115 = CALENDAR_DATE ( 2023, 12, 2 ) ;
#116 = CARTESIAN_POINT ( 'NONE',  ( 0.000000000000000000, 0.000000000000000000, 0.000000000000000000 ) ) ;
#117 = ADVANCED_FACE ( 'NONE', ( #84 ), #214, .T. ) ;
#118 = PERSON_AND_ORGANIZATION_ROLE ( 'creator' ) ;
#119 = AXIS2_PLACEMENT_3D ( 'NONE', #207, #95, #247 ) ;
#120 = ORIENTED_EDGE ( 'NONE', *, *, #178, .F. ) ;
#121 = DIRECTION ( 'NONE',  ( 1.000000000000000000, 0.000000000000000000, 0.000000000000000000 ) ) ;
#122 = ADVANCED_FACE ( 'NONE', ( #136 ), #218, .T. ) ;
#123 = DIRECTION ( 'NONE',  ( 0.000000000000000000, 0.000000000000000000, 1.000000000000000000 ) ) ;
#124 = ORIENTED_EDGE ( 'NONE', *, *, #140, .F. ) ;
#125 = DIRECTION ( 'NONE',  ( -0.000000000000000000, -0.000000000000000000, -1.000000000000000000 ) ) ;
#126 = CARTESIAN_POINT ( 'NONE',  ( 0.000000000000000000, 0.000000000000000000, 5.000000000000000000 ) ) ;
#127 =( NAMED_UNIT ( * ) PLANE_ANGLE_UNIT ( ) SI_UNIT ( $, .RADIAN. ) );
#128 = CC_DESIGN_DATE_AND_TIME_ASSIGNMENT ( #104, #57, ( #239 ) ) ;
#129 = AXIS2_PLACEMENT_3D ( 'NONE', #78, #148, #232 ) ;
#130 = LOCAL_TIME ( 12, 31, 26.00000000000000000, #183 ) ;
#131 = DIRECTION ( 'NONE',  ( 1.000000000000000000, 0.000000000000000000, 0.000000000000000000 ) ) ;
#132 = ORIENTED_EDGE ( 'NONE', *, *, #172, .T. ) ;
#133 = PERSON_AND_ORGANIZATION ( #94, #63 ) ;
#134 = AXIS2_PLACEMENT_3D ( 'NONE', #204, #145, #91 ) ;
#135 = LOCAL_TIME ( 12, 31, 26.00000000000000000, #35 ) ;
#136 = FACE_OUTER_BOUND ( 'NONE', #234, .T. ) ;
#137 = VECTOR ( 'NONE', #191, 1000.000000000000000 ) ;
#138 = VECTOR ( 'NONE', #125, 1000.000000000000000 ) ;
#139 = ORIENTED_EDGE ( 'NONE', *, *, #156, .F. ) ;
#140 = EDGE_CURVE ( 'NONE', #90, #59, #174, .T. ) ;
#141 = VERTEX_POINT ( 'NONE', #96 ) ;
#142 = DIRECTION ( 'NONE',  ( 1.000000000000000000, 0.000000000000000000, -0.000000000000000000 ) ) ;
#143 = CARTESIAN_POINT ( 'NONE',  ( 0.000000000000000000, 0.000000000000000000, 5.000000000000000000 ) ) ;
#144 = PERSON_AND_ORGANIZATION ( #94, #63 ) ;
#145 = DIRECTION ( 'NONE',  ( 0.000000000000000000, 0.000000000000000000, 1.000000000000000000 ) ) ;
#146 = APPROVAL_STATUS ( 'not_yet_approved' ) ;
#147 = DIRECTION ( 'NONE',  ( 0.000000000000000000, 0.000000000000000000, 1.000000000000000000 ) ) ;
#148 = DIRECTION ( 'NONE',  ( 0.000000000000000000, 0.000000000000000000, 1.000000000000000000 ) ) ;
#149 = ORIENTED_EDGE ( 'NONE', *, *, #15, .T. ) ;
#150 = APPROVAL_ROLE ( '' ) ;
#151 = CC_DESIGN_PERSON_AND_ORGANIZATION_ASSIGNMENT ( #144, #55, ( #239 ) ) ;
#152 = ORIENTED_EDGE ( 'NONE', *, *, #206, .T. ) ;
#153 = ORIENTED_EDGE ( 'NONE', *, *, #8, .T. ) ;
#154 = APPLICATION_PROTOCOL_DEFINITION ( 'international standard', 'config_control_design', 1994, #237 ) ;
#155 = CALENDAR_DATE ( 2023, 12, 2 ) ;
#156 = EDGE_CURVE ( 'NONE', #141, #165, #250, .T. ) ;
#157 = CALENDAR_DATE ( 2023, 12, 2 ) ;
#158 = PERSON_AND_ORGANIZATION_ROLE ( 'design_supplier' ) ;
#159 = EDGE_LOOP ( 'NONE', ( #120, #67 ) ) ;
#160 =( GEOMETRIC_REPRESENTATION_CONTEXT ( 3 ) GLOBAL_UNCERTAINTY_ASSIGNED_CONTEXT ( ( #227 ) ) GLOBAL_UNIT_ASSIGNED_CONTEXT ( ( #25, #127, #80 ) ) REPRESENTATION_CONTEXT ( 'NONE', 'WORKASPACE' ) );
#161 = EDGE_CURVE ( 'NONE', #52, #90, #168, .T. ) ;
#162 = PERSON_AND_ORGANIZATION ( #94, #63 ) ;
#163 = PERSON_AND_ORGANIZATION ( #94, #63 ) ;
#164 = DIRECTION ( 'NONE',  ( 0.000000000000000000, 0.000000000000000000, 1.000000000000000000 ) ) ;
#165 = VERTEX_POINT ( 'NONE', #224 ) ;
#166 = PRODUCT_RELATED_PRODUCT_CATEGORY ( 'detail', '', ( #27 ) ) ;
#167 = AXIS2_PLACEMENT_3D ( 'NONE', #236, #164, #75 ) ;
#168 = LINE ( 'NONE', #44, #138 ) ;
#169 = CIRCLE ( 'NONE', #119, 6.000000000000000888 ) ;
#170 = ORIENTED_EDGE ( 'NONE', *, *, #178, .T. ) ;
#171 = DIRECTION ( 'NONE',  ( -0.000000000000000000, -0.000000000000000000, -1.000000000000000000 ) ) ;
#172 = EDGE_CURVE ( 'NONE', #109, #5, #71, .T. ) ;
#173 = ORIENTED_EDGE ( 'NONE', *, *, #58, .F. ) ;
#174 = CIRCLE ( 'NONE', #193, 3.250000000000000444 ) ;
#175 = AXIS2_PLACEMENT_3D ( 'NONE', #30, #201, #12 ) ;
#176 = ORIENTED_EDGE ( 'NONE', *, *, #86, .F. ) ;
#177 = PERSON_AND_ORGANIZATION ( #94, #63 ) ;
#178 = EDGE_CURVE ( 'NONE', #5, #109, #76, .T. ) ;
#179 = DATE_AND_TIME ( #69, #130 ) ;
#180 = AXIS2_PLACEMENT_3D ( 'NONE', #220, #39, #238 ) ;
#181 = DIRECTION ( 'NONE',  ( 1.000000000000000000, 0.000000000000000000, 0.000000000000000000 ) ) ;
#182 = APPROVAL_ROLE ( '' ) ;
#183 = COORDINATED_UNIVERSAL_TIME_OFFSET ( 1, 0, .AHEAD. ) ;
#184 = DIRECTION ( 'NONE',  ( -0.000000000000000000, -0.000000000000000000, -1.000000000000000000 ) ) ;
#185 = ADVANCED_FACE ( 'NONE', ( #249 ), #72, .T. ) ;
#186 = CYLINDRICAL_SURFACE ( 'NONE', #38, 3.250000000000000444 ) ;
#187 = ORIENTED_EDGE ( 'NONE', *, *, #86, .T. ) ;
#188 = CARTESIAN_POINT ( 'NONE',  ( 3.250000000000000444, 3.980102097228898231E-16, 160.0000000000000000 ) ) ;
#189 = CC_DESIGN_APPROVAL ( #61, ( #239 ) ) ;
#190 = APPROVAL_STATUS ( 'not_yet_approved' ) ;
#191 = DIRECTION ( 'NONE',  ( -0.000000000000000000, -0.000000000000000000, -1.000000000000000000 ) ) ;
#192 = PERSON_AND_ORGANIZATION ( #94, #63 ) ;
#193 = AXIS2_PLACEMENT_3D ( 'NONE', #143, #123, #181 ) ;
#194 = DIRECTION ( 'NONE',  ( -0.000000000000000000, -0.000000000000000000, -1.000000000000000000 ) ) ;
#195 = PRODUCT_DEFINITION ( 'NEZNÁMÝ', '', #56, #23 ) ;
#196 = APPROVAL_PERSON_ORGANIZATION ( #163, #225, #231 ) ;
#197 = CC_DESIGN_PERSON_AND_ORGANIZATION_ASSIGNMENT ( #133, #118, ( #56 ) ) ;
#198 = PRODUCT_DEFINITION_SHAPE ( 'NONE', 'NONE',  #195 ) ;
#199 = DIRECTION ( 'NONE',  ( 0.000000000000000000, 0.000000000000000000, 1.000000000000000000 ) ) ;
#200 = DIRECTION ( 'NONE',  ( 0.000000000000000000, 0.000000000000000000, 1.000000000000000000 ) ) ;
#201 = DIRECTION ( 'NONE',  ( -0.000000000000000000, -0.000000000000000000, -1.000000000000000000 ) ) ;
#202 = CARTESIAN_POINT ( 'NONE',  ( 0.000000000000000000, 0.000000000000000000, 0.000000000000000000 ) ) ;
#203 = DATE_TIME_ROLE ( 'creation_date' ) ;
#204 = CARTESIAN_POINT ( 'NONE',  ( 0.000000000000000000, 0.000000000000000000, 5.000000000000000000 ) ) ;
#205 = CC_DESIGN_SECURITY_CLASSIFICATION ( #239, ( #56 ) ) ;
#206 = EDGE_CURVE ( 'NONE', #165, #141, #169, .T. ) ;
#207 = CARTESIAN_POINT ( 'NONE',  ( 0.000000000000000000, 0.000000000000000000, 5.000000000000000000 ) ) ;
#208 = CARTESIAN_POINT ( 'NONE',  ( 0.000000000000000000, 0.000000000000000000, 160.0000000000000000 ) ) ;
#209 = CARTESIAN_POINT ( 'NONE',  ( 6.000000000000000888, 7.347880794884120722E-16, 0.000000000000000000 ) ) ;
#210 = AXIS2_PLACEMENT_3D ( 'NONE', #116, #41, #219 ) ;
#211 = CARTESIAN_POINT ( 'NONE',  ( 6.000000000000000888, 7.347880794884120722E-16, 5.000000000000000000 ) ) ;
#212 = LINE ( 'NONE', #211, #81 ) ;
#213 = CIRCLE ( 'NONE', #167, 3.250000000000000444 ) ;
#214 = CYLINDRICAL_SURFACE ( 'NONE', #62, 6.000000000000000888 ) ;
#215 = ADVANCED_FACE ( 'NONE', ( #66 ), #217, .T. ) ;
#216 = APPROVAL_PERSON_ORGANIZATION ( #192, #61, #150 ) ;
#217 = PLANE ( 'NONE',  #251 ) ;
#218 = CYLINDRICAL_SURFACE ( 'NONE', #102, 6.000000000000000888 ) ;
#219 = DIRECTION ( 'NONE',  ( 1.000000000000000000, 0.000000000000000000, 0.000000000000000000 ) ) ;
#220 = CARTESIAN_POINT ( 'NONE',  ( 0.000000000000000000, 0.000000000000000000, 0.000000000000000000 ) ) ;
#221 = DATE_AND_TIME ( #157, #40 ) ;
#222 = CC_DESIGN_PERSON_AND_ORGANIZATION_ASSIGNMENT ( #252, #50, ( #195 ) ) ;
#223 = AXIS2_PLACEMENT_3D ( 'NONE', #202, #199, #28 ) ;
#224 = CARTESIAN_POINT ( 'NONE',  ( -6.000000000000000888, 0.000000000000000000, 5.000000000000000000 ) ) ;
#225 = APPROVAL ( #146, 'NEURÈENÝ' ) ;
#226 = ORIENTED_EDGE ( 'NONE', *, *, #161, .F. ) ;
#227 = UNCERTAINTY_MEASURE_WITH_UNIT (LENGTH_MEASURE( 1.000000000000000082E-05 ), #25, 'distance_accuracy_value', 'NONE');
#228 = DIRECTION ( 'NONE',  ( -0.000000000000000000, -0.000000000000000000, -1.000000000000000000 ) ) ;
#229 = VERTEX_POINT ( 'NONE', #11 ) ;
#230 = CARTESIAN_POINT ( 'NONE',  ( -3.250000000000000444, 0.000000000000000000, 5.000000000000000000 ) ) ;
#231 = APPROVAL_ROLE ( '' ) ;
#232 = DIRECTION ( 'NONE',  ( 1.000000000000000000, 0.000000000000000000, 0.000000000000000000 ) ) ;
#233 = CLOSED_SHELL ( 'NONE', ( #73, #122, #117, #70, #110, #185, #215 ) ) ;
#234 = EDGE_LOOP ( 'NONE', ( #139, #149, #132, #98 ) ) ;
#235 = LOCAL_TIME ( 12, 31, 26.00000000000000000, #103 ) ;
#236 = CARTESIAN_POINT ( 'NONE',  ( 0.000000000000000000, 0.000000000000000000, 160.0000000000000000 ) ) ;
#237 = APPLICATION_CONTEXT ( 'configuration controlled 3d designs of mechanical parts and assemblies' ) ;
#238 = DIRECTION ( 'NONE',  ( 1.000000000000000000, 0.000000000000000000, -0.000000000000000000 ) ) ;
#239 = SECURITY_CLASSIFICATION ( '', '', #65 ) ;
#240 = EDGE_LOOP ( 'NONE', ( #226, #46, #153, #187 ) ) ;
#241 = APPROVAL_STATUS ( 'not_yet_approved' ) ;
#242 = VECTOR ( 'NONE', #184, 1000.000000000000000 ) ;
#243 = APPROVAL_PERSON_ORGANIZATION ( #162, #3, #182 ) ;
#244 = CC_DESIGN_PERSON_AND_ORGANIZATION_ASSIGNMENT ( #26, #31, ( #27 ) ) ;
#245 = ORIENTED_EDGE ( 'NONE', *, *, #15, .F. ) ;
#246 = CARTESIAN_POINT ( 'NONE',  ( 0.000000000000000000, 0.000000000000000000, 0.000000000000000000 ) ) ;
#247 = DIRECTION ( 'NONE',  ( 1.000000000000000000, 0.000000000000000000, 0.000000000000000000 ) ) ;
#248 = APPLICATION_CONTEXT ( 'configuration controlled 3d designs of mechanical parts and assemblies' ) ;
#249 = FACE_OUTER_BOUND ( 'NONE', #240, .T. ) ;
#250 = CIRCLE ( 'NONE', #134, 6.000000000000000888 ) ;
#251 = AXIS2_PLACEMENT_3D ( 'NONE', #9, #200, #142 ) ;
#252 = PERSON_AND_ORGANIZATION ( #94, #63 ) ;
#253 = CARTESIAN_POINT ( 'NONE',  ( -6.000000000000000888, 0.000000000000000000, 5.000000000000000000 ) ) ;
#254 = DIRECTION ( 'NONE',  ( -1.000000000000000000, 0.000000000000000000, 0.000000000000000000 ) ) ;
#255 = LINE ( 'NONE', #14, #137 ) ;
ENDSEC;
END-ISO-10303-21;
