ISO-10303-21;
HEADER;
FILE_DESCRIPTION (( 'STEP AP203' ),
    '1' );
FILE_NAME ('eff3.STEP',
    '2022-07-07T12:27:37',
    ( '' ),
    ( '' ),
    'SwSTEP 2.0',
    'SolidWorks 2019',
    '' );
FILE_SCHEMA (( 'CONFIG_CONTROL_DESIGN' ));
ENDSEC;

DATA;
#1 = PERSON_AND_ORGANIZATION_ROLE ( 'design_supplier' ) ;
#2 = EDGE_CURVE ( 'NONE', #206, #155, #262, .T. ) ;
#3 = DATE_TIME_ROLE ( 'classification_date' ) ;
#4 = CLOSED_SHELL ( 'NONE', ( #296, #91, #57, #275, #207, #153, #137, #142, #245 ) ) ;
#5 = CC_DESIGN_APPROVAL ( #28, ( #140 ) ) ;
#6 = DATE_AND_TIME ( #51, #181 ) ;
#7 = EDGE_LOOP ( 'NONE', ( #50, #136, #15, #178 ) ) ;
#8 = ORIENTED_EDGE ( 'NONE', *, *, #14, .T. ) ;
#9 =( NAMED_UNIT ( * ) PLANE_ANGLE_UNIT ( ) SI_UNIT ( $, .RADIAN. ) );
#10 = CC_DESIGN_APPROVAL ( #144, ( #55 ) ) ;
#11 = CARTESIAN_POINT ( 'NONE',  ( 0.000000000000000000, 0.000000000000000000, 5.199999999999982414 ) ) ;
#12 = PERSON ( 'NEURÈENÝ', 'NEURÈENÝ', 'NEURÈENÝ', ('NEURÈENÝ'), ('NEURÈENÝ'), ('NEURÈENÝ') ) ;
#13 = CARTESIAN_POINT ( 'NONE',  ( -8.000000000000000000, 0.000000000000000000, 0.000000000000000000 ) ) ;
#14 = EDGE_CURVE ( 'NONE', #60, #176, #250, .T. ) ;
#15 = ORIENTED_EDGE ( 'NONE', *, *, #163, .T. ) ;
#16 = CARTESIAN_POINT ( 'NONE',  ( 5.000000000000000000, 6.123233995736766282E-16, 405.0000000000000000 ) ) ;
#17 = EDGE_CURVE ( 'NONE', #60, #221, #18, .T. ) ;
#18 = LINE ( 'NONE', #157, #205 ) ;
#19 = CARTESIAN_POINT ( 'NONE',  ( 5.000000000000000000, 6.123233995736766282E-16, 5.199999999999982414 ) ) ;
#20 = CIRCLE ( 'NONE', #89, 8.000000000000000000 ) ;
#21 = DIRECTION ( 'NONE',  ( 1.000000000000000000, 0.000000000000000000, 0.000000000000000000 ) ) ;
#22 = DIRECTION ( 'NONE',  ( 0.000000000000000000, 0.000000000000000000, 1.000000000000000000 ) ) ;
#23 = CC_DESIGN_PERSON_AND_ORGANIZATION_ASSIGNMENT ( #293, #288, ( #41 ) ) ;
#24 = DIRECTION ( 'NONE',  ( 1.000000000000000000, 0.000000000000000000, 0.000000000000000000 ) ) ;
#25 = PLANE ( 'NONE',  #80 ) ;
#26 = CIRCLE ( 'NONE', #199, 5.200000000000000178 ) ;
#27 = LOCAL_TIME ( 14, 27, 37.00000000000000000, #154 ) ;
#28 = APPROVAL ( #248, 'NEURÈENÝ' ) ;
#29 = CALENDAR_DATE ( 2022, 7, 7 ) ;
#30 = APPLICATION_PROTOCOL_DEFINITION ( 'international standard', 'config_control_design', 1994, #246 ) ;
#31 = VERTEX_POINT ( 'NONE', #16 ) ;
#32 = DATE_TIME_ROLE ( 'creation_date' ) ;
#33 = ORIENTED_EDGE ( 'NONE', *, *, #118, .F. ) ;
#34 = LOCAL_TIME ( 14, 27, 37.00000000000000000, #149 ) ;
#35 = APPROVAL_ROLE ( '' ) ;
#36 = EDGE_LOOP ( 'NONE', ( #76, #8 ) ) ;
#37 = AXIS2_PLACEMENT_3D ( 'NONE', #257, #138, #162 ) ;
#38 = DIRECTION ( 'NONE',  ( 1.000000000000000000, 0.000000000000000000, 0.000000000000000000 ) ) ;
#39 = CYLINDRICAL_SURFACE ( 'NONE', #49, 5.000000000000000000 ) ;
#40 = ORIENTED_EDGE ( 'NONE', *, *, #254, .F. ) ;
#41 = PRODUCT ( 'eff3', 'eff3', '', ( #48 ) ) ;
#42 = ORIENTED_EDGE ( 'NONE', *, *, #163, .F. ) ;
#43 = DIRECTION ( 'NONE',  ( 0.000000000000000000, 0.000000000000000000, 1.000000000000000000 ) ) ;
#44 = CYLINDRICAL_SURFACE ( 'NONE', #99, 8.000000000000000000 ) ;
#45 = FACE_OUTER_BOUND ( 'NONE', #36, .T. ) ;
#46 = CARTESIAN_POINT ( 'NONE',  ( 0.000000000000000000, 0.000000000000000000, 405.0000000000000000 ) ) ;
#47 = DIRECTION ( 'NONE',  ( 0.000000000000000000, 0.000000000000000000, 1.000000000000000000 ) ) ;
#48 = MECHANICAL_CONTEXT ( 'NONE', #246, 'mechanical' ) ;
#49 = AXIS2_PLACEMENT_3D ( 'NONE', #297, #85, #277 ) ;
#50 = ORIENTED_EDGE ( 'NONE', *, *, #14, .F. ) ;
#51 = CALENDAR_DATE ( 2022, 7, 7 ) ;
#52 =( NAMED_UNIT ( * ) SI_UNIT ( $, .STERADIAN. ) SOLID_ANGLE_UNIT ( ) );
#53 = ORIENTED_EDGE ( 'NONE', *, *, #74, .T. ) ;
#54 = AXIS2_PLACEMENT_3D ( 'NONE', #204, #65, #294 ) ;
#55 = PRODUCT_DEFINITION ( 'NEZNÁMÝ', '', #140, #108 ) ;
#56 = AXIS2_PLACEMENT_3D ( 'NONE', #141, #284, #70 ) ;
#57 = ADVANCED_FACE ( 'NONE', ( #182 ), #111, .T. ) ;
#58 = DIRECTION ( 'NONE',  ( 0.000000000000000000, 0.000000000000000000, 1.000000000000000000 ) ) ;
#59 = AXIS2_PLACEMENT_3D ( 'NONE', #189, #261, #239 ) ;
#60 = VERTEX_POINT ( 'NONE', #161 ) ;
#61 = CARTESIAN_POINT ( 'NONE',  ( 0.000000000000000000, 0.000000000000000000, 5.000000000000000000 ) ) ;
#62 = CC_DESIGN_PERSON_AND_ORGANIZATION_ASSIGNMENT ( #266, #78, ( #55 ) ) ;
#63 = EDGE_CURVE ( 'NONE', #206, #172, #230, .T. ) ;
#64 = CARTESIAN_POINT ( 'NONE',  ( -5.000000000000000000, 0.000000000000000000, 405.0000000000000000 ) ) ;
#65 = DIRECTION ( 'NONE',  ( -0.000000000000000000, -0.000000000000000000, -1.000000000000000000 ) ) ;
#66 = EDGE_CURVE ( 'NONE', #172, #152, #168, .T. ) ;
#67 = FACE_OUTER_BOUND ( 'NONE', #249, .T. ) ;
#68 = DIRECTION ( 'NONE',  ( 0.000000000000000000, 0.000000000000000000, 1.000000000000000000 ) ) ;
#69 = CC_DESIGN_APPROVAL ( #106, ( #187 ) ) ;
#70 = DIRECTION ( 'NONE',  ( 1.000000000000000000, 0.000000000000000000, 0.000000000000000000 ) ) ;
#71 = DIRECTION ( 'NONE',  ( -0.000000000000000000, -0.000000000000000000, -1.000000000000000000 ) ) ;
#72 = EDGE_CURVE ( 'NONE', #31, #206, #83, .T. ) ;
#73 = CYLINDRICAL_SURFACE ( 'NONE', #59, 5.000000000000000000 ) ;
#74 = EDGE_CURVE ( 'NONE', #31, #107, #160, .T. ) ;
#75 = APPROVAL_ROLE ( '' ) ;
#76 = ORIENTED_EDGE ( 'NONE', *, *, #133, .T. ) ;
#77 = DATE_AND_TIME ( #171, #27 ) ;
#78 = PERSON_AND_ORGANIZATION_ROLE ( 'creator' ) ;
#79 = AXIS2_PLACEMENT_3D ( 'NONE', #184, #135, #131 ) ;
#80 = AXIS2_PLACEMENT_3D ( 'NONE', #213, #22, #307 ) ;
#81 = EDGE_CURVE ( 'NONE', #152, #155, #26, .T. ) ;
#82 = DIRECTION ( 'NONE',  ( 1.224646799147353207E-16, 1.000000000000000000, -0.000000000000000000 ) ) ;
#83 = LINE ( 'NONE', #179, #270 ) ;
#84 = AXIS2_PLACEMENT_3D ( 'NONE', #200, #264, #98 ) ;
#85 = DIRECTION ( 'NONE',  ( -0.000000000000000000, -0.000000000000000000, -1.000000000000000000 ) ) ;
#86 = ORIENTED_EDGE ( 'NONE', *, *, #208, .F. ) ;
#87 = VERTEX_POINT ( 'NONE', #13 ) ;
#88 = AXIS2_PLACEMENT_3D ( 'NONE', #263, #43, #24 ) ;
#89 = AXIS2_PLACEMENT_3D ( 'NONE', #145, #240, #238 ) ;
#90 = CARTESIAN_POINT ( 'NONE',  ( -5.000000000000000000, 0.000000000000000000, 405.0000000000000000 ) ) ;
#91 = ADVANCED_FACE ( 'NONE', ( #180 ), #39, .T. ) ;
#92 = DIRECTION ( 'NONE',  ( -0.000000000000000000, -0.000000000000000000, -1.000000000000000000 ) ) ;
#93 = DIRECTION ( 'NONE',  ( -0.000000000000000000, -0.000000000000000000, -1.000000000000000000 ) ) ;
#94 = DIRECTION ( 'NONE',  ( 1.000000000000000000, 0.000000000000000000, 0.000000000000000000 ) ) ;
#95 = CARTESIAN_POINT ( 'NONE',  ( 0.000000000000000000, 0.000000000000000000, 5.199999999999982414 ) ) ;
#96 = PERSON_AND_ORGANIZATION ( #12, #237 ) ;
#97 = ORIENTED_EDGE ( 'NONE', *, *, #66, .F. ) ;
#98 = DIRECTION ( 'NONE',  ( 1.000000000000000000, 0.000000000000000000, 0.000000000000000000 ) ) ;
#99 = AXIS2_PLACEMENT_3D ( 'NONE', #304, #71, #188 ) ;
#100 = EDGE_CURVE ( 'NONE', #155, #152, #300, .T. ) ;
#101 = APPROVAL_DATE_TIME ( #6, #106 ) ;
#102 = APPROVAL_STATUS ( 'not_yet_approved' ) ;
#103 = CIRCLE ( 'NONE', #37, 5.000000000000000000 ) ;
#104 = TOROIDAL_SURFACE ( 'NONE', #56, 5.200000000000000178, 0.2000000000000000111 ) ;
#105 = DIRECTION ( 'NONE',  ( 0.000000000000000000, 0.000000000000000000, 1.000000000000000000 ) ) ;
#106 = APPROVAL ( #195, 'NEURÈENÝ' ) ;
#107 = VERTEX_POINT ( 'NONE', #64 ) ;
#108 = DESIGN_CONTEXT ( 'detailed design', #278, 'design' ) ;
#109 = DIRECTION ( 'NONE',  ( 1.000000000000000000, 0.000000000000000000, 0.000000000000000000 ) ) ;
#110 = CIRCLE ( 'NONE', #115, 5.000000000000000000 ) ;
#111 = CYLINDRICAL_SURFACE ( 'NONE', #54, 8.000000000000000000 ) ;
#112 = DIRECTION ( 'NONE',  ( -1.000000000000000000, 1.224646799147353454E-16, 0.000000000000000000 ) ) ;
#113 = FACE_BOUND ( 'NONE', #273, .T. ) ;
#114 = CC_DESIGN_DATE_AND_TIME_ASSIGNMENT ( #217, #3, ( #187 ) ) ;
#115 = AXIS2_PLACEMENT_3D ( 'NONE', #46, #166, #21 ) ;
#116 = FACE_OUTER_BOUND ( 'NONE', #127, .T. ) ;
#117 = CARTESIAN_POINT ( 'NONE',  ( -8.000000000000000000, 0.000000000000000000, 5.000000000000000000 ) ) ;
#118 = EDGE_CURVE ( 'NONE', #172, #206, #103, .T. ) ;
#119 = PLANE ( 'NONE',  #241 ) ;
#120 = APPROVAL_PERSON_ORGANIZATION ( #292, #106, #75 ) ;
#121 = CARTESIAN_POINT ( 'NONE',  ( -5.000000000000000000, 0.000000000000000000, 5.199999999999982414 ) ) ;
#122 = PERSON_AND_ORGANIZATION ( #12, #237 ) ;
#123 = COORDINATED_UNIVERSAL_TIME_OFFSET ( 1, 0, .AHEAD. ) ;
#124 = ORIENTED_EDGE ( 'NONE', *, *, #66, .T. ) ;
#125 = COORDINATED_UNIVERSAL_TIME_OFFSET ( 1, 0, .AHEAD. ) ;
#126 = ORIENTED_EDGE ( 'NONE', *, *, #81, .F. ) ;
#127 = EDGE_LOOP ( 'NONE', ( #276, #218, #159, #269 ) ) ;
#128 = PERSON_AND_ORGANIZATION_ROLE ( 'creator' ) ;
#129 = EDGE_LOOP ( 'NONE', ( #280, #53 ) ) ;
#130 = AXIS2_PLACEMENT_3D ( 'NONE', #143, #212, #215 ) ;
#131 = DIRECTION ( 'NONE',  ( 0.000000000000000000, 0.000000000000000000, -1.000000000000000000 ) ) ;
#132 = ORIENTED_EDGE ( 'NONE', *, *, #100, .F. ) ;
#133 = EDGE_CURVE ( 'NONE', #176, #60, #224, .T. ) ;
#134 = ADVANCED_BREP_SHAPE_REPRESENTATION ( 'eff3', ( #183, #84 ), #194 ) ;
#135 = DIRECTION ( 'NONE',  ( 0.000000000000000000, -1.000000000000000000, 0.000000000000000000 ) ) ;
#136 = ORIENTED_EDGE ( 'NONE', *, *, #17, .T. ) ;
#137 = ADVANCED_FACE ( 'NONE', ( #116 ), #73, .T. ) ;
#138 = DIRECTION ( 'NONE',  ( 0.000000000000000000, 0.000000000000000000, 1.000000000000000000 ) ) ;
#139 = CARTESIAN_POINT ( 'NONE',  ( 0.000000000000000000, 0.000000000000000000, 0.000000000000000000 ) ) ;
#140 = PRODUCT_DEFINITION_FORMATION_WITH_SPECIFIED_SOURCE ( 'LIBOVOLNÝ', '', #41, .NOT_KNOWN. ) ;
#141 = CARTESIAN_POINT ( 'NONE',  ( 0.000000000000000000, 0.000000000000000000, 5.199999999999982414 ) ) ;
#142 = ADVANCED_FACE ( 'NONE', ( #305 ), #259, .T. ) ;
#143 = CARTESIAN_POINT ( 'NONE',  ( 0.000000000000000000, 0.000000000000000000, 405.0000000000000000 ) ) ;
#144 = APPROVAL ( #102, 'NEURÈENÝ' ) ;
#145 = CARTESIAN_POINT ( 'NONE',  ( 0.000000000000000000, 0.000000000000000000, 0.000000000000000000 ) ) ;
#146 = AXIS2_PLACEMENT_3D ( 'NONE', #95, #190, #164 ) ;
#147 = PERSON_AND_ORGANIZATION ( #12, #237 ) ;
#148 = ORIENTED_EDGE ( 'NONE', *, *, #208, .T. ) ;
#149 = COORDINATED_UNIVERSAL_TIME_OFFSET ( 1, 0, .AHEAD. ) ;
#150 = ORIENTED_EDGE ( 'NONE', *, *, #100, .T. ) ;
#151 =( LENGTH_UNIT ( ) NAMED_UNIT ( * ) SI_UNIT ( .MILLI., .METRE. ) );
#152 = VERTEX_POINT ( 'NONE', #287 ) ;
#153 = ADVANCED_FACE ( 'NONE', ( #303 ), #119, .F. ) ;
#154 = COORDINATED_UNIVERSAL_TIME_OFFSET ( 1, 0, .AHEAD. ) ;
#155 = VERTEX_POINT ( 'NONE', #167 ) ;
#156 = VECTOR ( 'NONE', #93, 1000.000000000000000 ) ;
#157 = CARTESIAN_POINT ( 'NONE',  ( 8.000000000000000000, 9.797174393178825657E-16, 5.000000000000000000 ) ) ;
#158 = DIRECTION ( 'NONE',  ( -0.000000000000000000, -0.000000000000000000, -1.000000000000000000 ) ) ;
#159 = ORIENTED_EDGE ( 'NONE', *, *, #254, .T. ) ;
#160 = CIRCLE ( 'NONE', #306, 5.000000000000000000 ) ;
#161 = CARTESIAN_POINT ( 'NONE',  ( 8.000000000000000000, 9.797174393178825657E-16, 5.000000000000000000 ) ) ;
#162 = DIRECTION ( 'NONE',  ( 1.000000000000000000, 0.000000000000000000, 0.000000000000000000 ) ) ;
#163 = EDGE_CURVE ( 'NONE', #221, #87, #20, .T. ) ;
#164 = DIRECTION ( 'NONE',  ( 1.000000000000000000, 0.000000000000000000, 0.000000000000000000 ) ) ;
#165 = AXIS2_PLACEMENT_3D ( 'NONE', #229, #58, #295 ) ;
#166 = DIRECTION ( 'NONE',  ( 0.000000000000000000, 0.000000000000000000, 1.000000000000000000 ) ) ;
#167 = CARTESIAN_POINT ( 'NONE',  ( 5.200000000000000178, 0.000000000000000000, 4.999999999999991118 ) ) ;
#168 = CIRCLE ( 'NONE', #290, 0.1999999999999996503 ) ;
#169 = CC_DESIGN_PERSON_AND_ORGANIZATION_ASSIGNMENT ( #96, #192, ( #187 ) ) ;
#170 = LOCAL_TIME ( 14, 27, 37.00000000000000000, #125 ) ;
#171 = CALENDAR_DATE ( 2022, 7, 7 ) ;
#172 = VERTEX_POINT ( 'NONE', #121 ) ;
#173 = COORDINATED_UNIVERSAL_TIME_OFFSET ( 1, 0, .AHEAD. ) ;
#174 = ORIENTED_EDGE ( 'NONE', *, *, #74, .F. ) ;
#175 = DATE_AND_TIME ( #29, #301 ) ;
#176 = VERTEX_POINT ( 'NONE', #117 ) ;
#177 = PERSON_AND_ORGANIZATION ( #12, #237 ) ;
#178 = ORIENTED_EDGE ( 'NONE', *, *, #283, .F. ) ;
#179 = CARTESIAN_POINT ( 'NONE',  ( 5.000000000000000000, 6.123233995736766282E-16, 405.0000000000000000 ) ) ;
#180 = FACE_OUTER_BOUND ( 'NONE', #197, .T. ) ;
#181 = LOCAL_TIME ( 14, 27, 37.00000000000000000, #173 ) ;
#182 = FACE_OUTER_BOUND ( 'NONE', #7, .T. ) ;
#183 = MANIFOLD_SOLID_BREP ( 'Zaoblit1', #4 ) ;
#184 = CARTESIAN_POINT ( 'NONE',  ( 5.200000000000000178, 0.000000000000000000, 5.199999999999982414 ) ) ;
#185 = CC_DESIGN_DATE_AND_TIME_ASSIGNMENT ( #175, #32, ( #55 ) ) ;
#186 = ORIENTED_EDGE ( 'NONE', *, *, #81, .T. ) ;
#187 = SECURITY_CLASSIFICATION ( '', '', #244 ) ;
#188 = DIRECTION ( 'NONE',  ( -1.000000000000000000, 0.000000000000000000, 0.000000000000000000 ) ) ;
#189 = CARTESIAN_POINT ( 'NONE',  ( 0.000000000000000000, 0.000000000000000000, 405.0000000000000000 ) ) ;
#190 = DIRECTION ( 'NONE',  ( 0.000000000000000000, 0.000000000000000000, 1.000000000000000000 ) ) ;
#191 = LINE ( 'NONE', #90, #251 ) ;
#192 = PERSON_AND_ORGANIZATION_ROLE ( 'classification_officer' ) ;
#193 = ORIENTED_EDGE ( 'NONE', *, *, #133, .F. ) ;
#194 =( GEOMETRIC_REPRESENTATION_CONTEXT ( 3 ) GLOBAL_UNCERTAINTY_ASSIGNED_CONTEXT ( ( #228 ) ) GLOBAL_UNIT_ASSIGNED_CONTEXT ( ( #151, #9, #52 ) ) REPRESENTATION_CONTEXT ( 'NONE', 'WORKASPACE' ) );
#195 = APPROVAL_STATUS ( 'not_yet_approved' ) ;
#196 = SHAPE_DEFINITION_REPRESENTATION ( #258, #134 ) ;
#197 = EDGE_LOOP ( 'NONE', ( #174, #289, #267, #40 ) ) ;
#198 = DATE_AND_TIME ( #268, #34 ) ;
#199 = AXIS2_PLACEMENT_3D ( 'NONE', #253, #279, #38 ) ;
#200 = CARTESIAN_POINT ( 'NONE',  ( 0.000000000000000000, 0.000000000000000000, 0.000000000000000000 ) ) ;
#201 = CC_DESIGN_SECURITY_CLASSIFICATION ( #187, ( #140 ) ) ;
#202 = ORIENTED_EDGE ( 'NONE', *, *, #63, .F. ) ;
#203 = DIRECTION ( 'NONE',  ( 1.000000000000000000, 0.000000000000000000, 0.000000000000000000 ) ) ;
#204 = CARTESIAN_POINT ( 'NONE',  ( 0.000000000000000000, 0.000000000000000000, 5.000000000000000000 ) ) ;
#205 = VECTOR ( 'NONE', #210, 1000.000000000000000 ) ;
#206 = VERTEX_POINT ( 'NONE', #19 ) ;
#207 = ADVANCED_FACE ( 'NONE', ( #113, #45 ), #25, .T. ) ;
#208 = EDGE_CURVE ( 'NONE', #87, #221, #285, .T. ) ;
#209 = CARTESIAN_POINT ( 'NONE',  ( -5.200000000000000178, 6.368163355566236381E-16, 5.199999999999982414 ) ) ;
#210 = DIRECTION ( 'NONE',  ( -0.000000000000000000, -0.000000000000000000, -1.000000000000000000 ) ) ;
#211 = CARTESIAN_POINT ( 'NONE',  ( 8.000000000000000000, 9.797174393178825657E-16, 0.000000000000000000 ) ) ;
#212 = DIRECTION ( 'NONE',  ( 0.000000000000000000, 0.000000000000000000, 1.000000000000000000 ) ) ;
#213 = CARTESIAN_POINT ( 'NONE',  ( 0.000000000000000000, 0.000000000000000000, 5.000000000000000000 ) ) ;
#214 = APPROVAL_PERSON_ORGANIZATION ( #122, #28, #35 ) ;
#215 = DIRECTION ( 'NONE',  ( 1.000000000000000000, 0.000000000000000000, -0.000000000000000000 ) ) ;
#216 = APPROVAL_DATE_TIME ( #198, #28 ) ;
#217 = DATE_AND_TIME ( #220, #170 ) ;
#218 = ORIENTED_EDGE ( 'NONE', *, *, #219, .F. ) ;
#219 = EDGE_CURVE ( 'NONE', #107, #31, #110, .T. ) ;
#220 = CALENDAR_DATE ( 2022, 7, 7 ) ;
#221 = VERTEX_POINT ( 'NONE', #211 ) ;
#222 = APPROVAL_DATE_TIME ( #77, #144 ) ;
#223 = ORIENTED_EDGE ( 'NONE', *, *, #283, .T. ) ;
#224 = CIRCLE ( 'NONE', #88, 8.000000000000000000 ) ;
#225 = CC_DESIGN_PERSON_AND_ORGANIZATION_ASSIGNMENT ( #177, #1, ( #140 ) ) ;
#226 = ORIENTED_EDGE ( 'NONE', *, *, #2, .F. ) ;
#227 = ORIENTED_EDGE ( 'NONE', *, *, #2, .T. ) ;
#228 = UNCERTAINTY_MEASURE_WITH_UNIT (LENGTH_MEASURE( 1.000000000000000082E-05 ), #151, 'distance_accuracy_value', 'NONE');
#229 = CARTESIAN_POINT ( 'NONE',  ( 0.000000000000000000, 0.000000000000000000, 5.000000000000000000 ) ) ;
#230 = CIRCLE ( 'NONE', #256, 5.000000000000000000 ) ;
#231 = DIRECTION ( 'NONE',  ( 1.000000000000000000, 0.000000000000000000, 0.000000000000000000 ) ) ;
#232 = EDGE_LOOP ( 'NONE', ( #86, #42 ) ) ;
#233 = PRODUCT_RELATED_PRODUCT_CATEGORY ( 'detail', '', ( #41 ) ) ;
#234 = DIRECTION ( 'NONE',  ( 1.000000000000000000, 0.000000000000000000, -0.000000000000000000 ) ) ;
#235 = LINE ( 'NONE', #281, #156 ) ;
#236 = AXIS2_PLACEMENT_3D ( 'NONE', #61, #158, #231 ) ;
#237 = ORGANIZATION ( 'NEURÈENÝ', 'NEURÈENÝ', '' ) ;
#238 = DIRECTION ( 'NONE',  ( 1.000000000000000000, 0.000000000000000000, 0.000000000000000000 ) ) ;
#239 = DIRECTION ( 'NONE',  ( -1.000000000000000000, 0.000000000000000000, 0.000000000000000000 ) ) ;
#240 = DIRECTION ( 'NONE',  ( 0.000000000000000000, 0.000000000000000000, 1.000000000000000000 ) ) ;
#241 = AXIS2_PLACEMENT_3D ( 'NONE', #282, #68, #234 ) ;
#242 = APPROVAL_ROLE ( '' ) ;
#243 = APPLICATION_PROTOCOL_DEFINITION ( 'international standard', 'config_control_design', 1994, #278 ) ;
#244 = SECURITY_CLASSIFICATION_LEVEL ( 'unclassified' ) ;
#245 = ADVANCED_FACE ( 'NONE', ( #302 ), #265, .F. ) ;
#246 = APPLICATION_CONTEXT ( 'configuration controlled 3d designs of mechanical parts and assemblies' ) ;
#247 = EDGE_LOOP ( 'NONE', ( #97, #202, #227, #126 ) ) ;
#248 = APPROVAL_STATUS ( 'not_yet_approved' ) ;
#249 = EDGE_LOOP ( 'NONE', ( #33, #124, #132, #226 ) ) ;
#250 = CIRCLE ( 'NONE', #165, 8.000000000000000000 ) ;
#251 = VECTOR ( 'NONE', #92, 1000.000000000000000 ) ;
#252 = CARTESIAN_POINT ( 'NONE',  ( 0.000000000000000000, 0.000000000000000000, 405.0000000000000000 ) ) ;
#253 = CARTESIAN_POINT ( 'NONE',  ( 0.000000000000000000, 0.000000000000000000, 5.000000000000000000 ) ) ;
#254 = EDGE_CURVE ( 'NONE', #107, #172, #191, .T. ) ;
#255 = ORIENTED_EDGE ( 'NONE', *, *, #17, .F. ) ;
#256 = AXIS2_PLACEMENT_3D ( 'NONE', #11, #105, #203 ) ;
#257 = CARTESIAN_POINT ( 'NONE',  ( 0.000000000000000000, 0.000000000000000000, 5.199999999999982414 ) ) ;
#258 = PRODUCT_DEFINITION_SHAPE ( 'NONE', 'NONE',  #55 ) ;
#259 = PLANE ( 'NONE',  #130 ) ;
#260 = CC_DESIGN_PERSON_AND_ORGANIZATION_ASSIGNMENT ( #271, #128, ( #140 ) ) ;
#261 = DIRECTION ( 'NONE',  ( -0.000000000000000000, -0.000000000000000000, -1.000000000000000000 ) ) ;
#262 = CIRCLE ( 'NONE', #79, 0.1999999999999996503 ) ;
#263 = CARTESIAN_POINT ( 'NONE',  ( 0.000000000000000000, 0.000000000000000000, 5.000000000000000000 ) ) ;
#264 = DIRECTION ( 'NONE',  ( 0.000000000000000000, 0.000000000000000000, 1.000000000000000000 ) ) ;
#265 = TOROIDAL_SURFACE ( 'NONE', #146, 5.200000000000000178, 0.2000000000000000111 ) ;
#266 = PERSON_AND_ORGANIZATION ( #12, #237 ) ;
#267 = ORIENTED_EDGE ( 'NONE', *, *, #63, .T. ) ;
#268 = CALENDAR_DATE ( 2022, 7, 7 ) ;
#269 = ORIENTED_EDGE ( 'NONE', *, *, #118, .T. ) ;
#270 = VECTOR ( 'NONE', #299, 1000.000000000000000 ) ;
#271 = PERSON_AND_ORGANIZATION ( #12, #237 ) ;
#272 = EDGE_LOOP ( 'NONE', ( #255, #193, #223, #148 ) ) ;
#273 = EDGE_LOOP ( 'NONE', ( #150, #186 ) ) ;
#274 = APPROVAL_PERSON_ORGANIZATION ( #147, #144, #242 ) ;
#275 = ADVANCED_FACE ( 'NONE', ( #286 ), #44, .T. ) ;
#276 = ORIENTED_EDGE ( 'NONE', *, *, #72, .F. ) ;
#277 = DIRECTION ( 'NONE',  ( -1.000000000000000000, 0.000000000000000000, 0.000000000000000000 ) ) ;
#278 = APPLICATION_CONTEXT ( 'configuration controlled 3d designs of mechanical parts and assemblies' ) ;
#279 = DIRECTION ( 'NONE',  ( -0.000000000000000000, -0.000000000000000000, -1.000000000000000000 ) ) ;
#280 = ORIENTED_EDGE ( 'NONE', *, *, #219, .T. ) ;
#281 = CARTESIAN_POINT ( 'NONE',  ( -8.000000000000000000, 0.000000000000000000, 5.000000000000000000 ) ) ;
#282 = CARTESIAN_POINT ( 'NONE',  ( 0.000000000000000000, 0.000000000000000000, 0.000000000000000000 ) ) ;
#283 = EDGE_CURVE ( 'NONE', #176, #87, #235, .T. ) ;
#284 = DIRECTION ( 'NONE',  ( 0.000000000000000000, 0.000000000000000000, 1.000000000000000000 ) ) ;
#285 = CIRCLE ( 'NONE', #291, 8.000000000000000000 ) ;
#286 = FACE_OUTER_BOUND ( 'NONE', #272, .T. ) ;
#287 = CARTESIAN_POINT ( 'NONE',  ( -5.200000000000000178, 6.368163355566236381E-16, 4.999999999999991118 ) ) ;
#288 = PERSON_AND_ORGANIZATION_ROLE ( 'design_owner' ) ;
#289 = ORIENTED_EDGE ( 'NONE', *, *, #72, .T. ) ;
#290 = AXIS2_PLACEMENT_3D ( 'NONE', #209, #82, #112 ) ;
#291 = AXIS2_PLACEMENT_3D ( 'NONE', #139, #47, #94 ) ;
#292 = PERSON_AND_ORGANIZATION ( #12, #237 ) ;
#293 = PERSON_AND_ORGANIZATION ( #12, #237 ) ;
#294 = DIRECTION ( 'NONE',  ( -1.000000000000000000, 0.000000000000000000, 0.000000000000000000 ) ) ;
#295 = DIRECTION ( 'NONE',  ( 1.000000000000000000, 0.000000000000000000, 0.000000000000000000 ) ) ;
#296 = ADVANCED_FACE ( 'NONE', ( #67 ), #104, .F. ) ;
#297 = CARTESIAN_POINT ( 'NONE',  ( 0.000000000000000000, 0.000000000000000000, 405.0000000000000000 ) ) ;
#298 = DIRECTION ( 'NONE',  ( 0.000000000000000000, 0.000000000000000000, 1.000000000000000000 ) ) ;
#299 = DIRECTION ( 'NONE',  ( -0.000000000000000000, -0.000000000000000000, -1.000000000000000000 ) ) ;
#300 = CIRCLE ( 'NONE', #236, 5.200000000000000178 ) ;
#301 = LOCAL_TIME ( 14, 27, 37.00000000000000000, #123 ) ;
#302 = FACE_OUTER_BOUND ( 'NONE', #247, .T. ) ;
#303 = FACE_OUTER_BOUND ( 'NONE', #232, .T. ) ;
#304 = CARTESIAN_POINT ( 'NONE',  ( 0.000000000000000000, 0.000000000000000000, 5.000000000000000000 ) ) ;
#305 = FACE_OUTER_BOUND ( 'NONE', #129, .T. ) ;
#306 = AXIS2_PLACEMENT_3D ( 'NONE', #252, #298, #109 ) ;
#307 = DIRECTION ( 'NONE',  ( 1.000000000000000000, 0.000000000000000000, -0.000000000000000000 ) ) ;
ENDSEC;
END-ISO-10303-21;
