ISO-10303-21;
HEADER;
FILE_DESCRIPTION (( 'STEP AP203' ),
    '1' );
FILE_NAME ('e15b.STEP',
    '2022-07-07T12:38:00',
    ( '' ),
    ( '' ),
    'SwSTEP 2.0',
    'SolidWorks 2019',
    '' );
FILE_SCHEMA (( 'CONFIG_CONTROL_DESIGN' ));
ENDSEC;

DATA;
#1 = CIRCLE ( 'NONE', #137, 3.700000000000000178 ) ;
#2 = CARTESIAN_POINT ( 'NONE',  ( 0.000000000000000000, 0.000000000000000000, 5.199999999999996625 ) ) ;
#3 = DIRECTION ( 'NONE',  ( 0.000000000000000000, 0.000000000000000000, 1.000000000000000000 ) ) ;
#4 = CC_DESIGN_DATE_AND_TIME_ASSIGNMENT ( #264, #28, ( #307 ) ) ;
#5 = PERSON_AND_ORGANIZATION_ROLE ( 'creator' ) ;
#6 = APPROVAL_STATUS ( 'not_yet_approved' ) ;
#7 = AXIS2_PLACEMENT_3D ( 'NONE', #44, #3, #282 ) ;
#8 = COORDINATED_UNIVERSAL_TIME_OFFSET ( 1, 0, .AHEAD. ) ;
#9 = PERSON_AND_ORGANIZATION_ROLE ( 'classification_officer' ) ;
#10 = ORIENTED_EDGE ( 'NONE', *, *, #82, .F. ) ;
#11 = EDGE_CURVE ( 'NONE', #17, #294, #258, .T. ) ;
#12 = COORDINATED_UNIVERSAL_TIME_OFFSET ( 1, 0, .AHEAD. ) ;
#13 = PRODUCT_RELATED_PRODUCT_CATEGORY ( 'detail', '', ( #95 ) ) ;
#14 = VERTEX_POINT ( 'NONE', #134 ) ;
#15 = EDGE_LOOP ( 'NONE', ( #223, #54 ) ) ;
#16 = CARTESIAN_POINT ( 'NONE',  ( 0.000000000000000000, 0.000000000000000000, 5.000000000000000000 ) ) ;
#17 = VERTEX_POINT ( 'NONE', #39 ) ;
#18 = VERTEX_POINT ( 'NONE', #80 ) ;
#19 = AXIS2_PLACEMENT_3D ( 'NONE', #40, #233, #20 ) ;
#20 = DIRECTION ( 'NONE',  ( 1.000000000000000000, 0.000000000000000000, 0.000000000000000000 ) ) ;
#21 = LINE ( 'NONE', #89, #160 ) ;
#22 = FACE_BOUND ( 'NONE', #182, .T. ) ;
#23 = AXIS2_PLACEMENT_3D ( 'NONE', #156, #279, #211 ) ;
#24 = AXIS2_PLACEMENT_3D ( 'NONE', #27, #186, #142 ) ;
#25 = DIRECTION ( 'NONE',  ( 1.000000000000000000, 0.000000000000000000, -0.000000000000000000 ) ) ;
#26 = ADVANCED_FACE ( 'NONE', ( #106 ), #202, .T. ) ;
#27 = CARTESIAN_POINT ( 'NONE',  ( 3.700000000000000178, 0.000000000000000000, 5.199999999999996625 ) ) ;
#28 = DATE_TIME_ROLE ( 'creation_date' ) ;
#29 = PERSON_AND_ORGANIZATION_ROLE ( 'design_supplier' ) ;
#30 = EDGE_CURVE ( 'NONE', #139, #250, #36, .T. ) ;
#31 = APPROVAL_STATUS ( 'not_yet_approved' ) ;
#32 = AXIS2_PLACEMENT_3D ( 'NONE', #94, #151, #122 ) ;
#33 = ORIENTED_EDGE ( 'NONE', *, *, #272, .T. ) ;
#34 = CARTESIAN_POINT ( 'NONE',  ( -3.500000000000000000, 0.000000000000000000, 5.199999999999996625 ) ) ;
#35 = CIRCLE ( 'NONE', #212, 6.000000000000000888 ) ;
#36 = LINE ( 'NONE', #277, #170 ) ;
#37 = CIRCLE ( 'NONE', #118, 6.000000000000000888 ) ;
#38 = DIRECTION ( 'NONE',  ( -0.000000000000000000, -0.000000000000000000, -1.000000000000000000 ) ) ;
#39 = CARTESIAN_POINT ( 'NONE',  ( -3.500000000000000000, 0.000000000000000000, 130.0000000000000000 ) ) ;
#40 = CARTESIAN_POINT ( 'NONE',  ( 0.000000000000000000, 0.000000000000000000, 5.000000000000000000 ) ) ;
#41 = EDGE_CURVE ( 'NONE', #78, #197, #207, .T. ) ;
#42 = CIRCLE ( 'NONE', #57, 3.500000000000000000 ) ;
#43 = DIRECTION ( 'NONE',  ( 1.000000000000000000, 0.000000000000000000, 0.000000000000000000 ) ) ;
#44 = CARTESIAN_POINT ( 'NONE',  ( 0.000000000000000000, 0.000000000000000000, 0.000000000000000000 ) ) ;
#45 = FACE_OUTER_BOUND ( 'NONE', #184, .T. ) ;
#46 = CIRCLE ( 'NONE', #24, 0.1999999999999996503 ) ;
#47 = DIRECTION ( 'NONE',  ( -1.000000000000000000, 0.000000000000000000, 0.000000000000000000 ) ) ;
#48 = APPROVAL_DATE_TIME ( #101, #130 ) ;
#49 = ORIENTED_EDGE ( 'NONE', *, *, #201, .F. ) ;
#50 = ORIENTED_EDGE ( 'NONE', *, *, #201, .T. ) ;
#51 = AXIS2_PLACEMENT_3D ( 'NONE', #248, #181, #158 ) ;
#52 = PERSON_AND_ORGANIZATION ( #92, #172 ) ;
#53 = APPROVAL_PERSON_ORGANIZATION ( #245, #146, #293 ) ;
#54 = ORIENTED_EDGE ( 'NONE', *, *, #224, .F. ) ;
#55 = PERSON_AND_ORGANIZATION_ROLE ( 'design_owner' ) ;
#56 = FACE_OUTER_BOUND ( 'NONE', #133, .T. ) ;
#57 = AXIS2_PLACEMENT_3D ( 'NONE', #119, #214, #90 ) ;
#58 = CARTESIAN_POINT ( 'NONE',  ( 0.000000000000000000, 0.000000000000000000, 130.0000000000000000 ) ) ;
#59 = DIRECTION ( 'NONE',  ( -1.000000000000000000, 0.000000000000000000, 0.000000000000000000 ) ) ;
#60 = EDGE_CURVE ( 'NONE', #78, #232, #174, .T. ) ;
#61 = CARTESIAN_POINT ( 'NONE',  ( -6.000000000000000888, 0.000000000000000000, 5.000000000000000000 ) ) ;
#62 = CARTESIAN_POINT ( 'NONE',  ( -3.500000000000000000, 0.000000000000000000, 130.0000000000000000 ) ) ;
#63 = CARTESIAN_POINT ( 'NONE',  ( 3.500000000000000000, 4.286263797015736595E-16, 5.199999999999996625 ) ) ;
#64 = ADVANCED_FACE ( 'NONE', ( #56 ), #226, .T. ) ;
#65 = CARTESIAN_POINT ( 'NONE',  ( 0.000000000000000000, 0.000000000000000000, 5.000000000000000000 ) ) ;
#66 = CC_DESIGN_APPROVAL ( #77, ( #124 ) ) ;
#67 = DIRECTION ( 'NONE',  ( 0.000000000000000000, 0.000000000000000000, 1.000000000000000000 ) ) ;
#68 = DIRECTION ( 'NONE',  ( 1.000000000000000000, 0.000000000000000000, 0.000000000000000000 ) ) ;
#69 = CYLINDRICAL_SURFACE ( 'NONE', #291, 3.500000000000000000 ) ;
#70 =( NAMED_UNIT ( * ) SI_UNIT ( $, .STERADIAN. ) SOLID_ANGLE_UNIT ( ) );
#71 = CALENDAR_DATE ( 2022, 7, 7 ) ;
#72 = CC_DESIGN_PERSON_AND_ORGANIZATION_ASSIGNMENT ( #76, #9, ( #108 ) ) ;
#73 = APPROVAL_DATE_TIME ( #196, #77 ) ;
#74 = CC_DESIGN_SECURITY_CLASSIFICATION ( #108, ( #124 ) ) ;
#75 = VERTEX_POINT ( 'NONE', #206 ) ;
#76 = PERSON_AND_ORGANIZATION ( #92, #172 ) ;
#77 = APPROVAL ( #91, 'NEURÈENÝ' ) ;
#78 = VERTEX_POINT ( 'NONE', #34 ) ;
#79 = ORIENTED_EDGE ( 'NONE', *, *, #176, .T. ) ;
#80 = CARTESIAN_POINT ( 'NONE',  ( 3.700000000000000178, 0.000000000000000000, 4.999999999999998224 ) ) ;
#81 = DIRECTION ( 'NONE',  ( -1.000000000000000000, 0.000000000000000000, 0.000000000000000000 ) ) ;
#82 = EDGE_CURVE ( 'NONE', #18, #232, #1, .T. ) ;
#83 = DIRECTION ( 'NONE',  ( 1.224646799147353207E-16, 1.000000000000000000, -0.000000000000000000 ) ) ;
#84 = CARTESIAN_POINT ( 'NONE',  ( 0.000000000000000000, 0.000000000000000000, 130.0000000000000000 ) ) ;
#85 = DIRECTION ( 'NONE',  ( 0.000000000000000000, 0.000000000000000000, 1.000000000000000000 ) ) ;
#86 = CC_DESIGN_PERSON_AND_ORGANIZATION_ASSIGNMENT ( #244, #55, ( #95 ) ) ;
#87 = DIRECTION ( 'NONE',  ( 0.000000000000000000, 0.000000000000000000, 1.000000000000000000 ) ) ;
#88 = AXIS2_PLACEMENT_3D ( 'NONE', #16, #111, #59 ) ;
#89 = CARTESIAN_POINT ( 'NONE',  ( 3.500000000000000000, 4.286263797015736595E-16, 130.0000000000000000 ) ) ;
#90 = DIRECTION ( 'NONE',  ( 1.000000000000000000, 0.000000000000000000, 0.000000000000000000 ) ) ;
#91 = APPROVAL_STATUS ( 'not_yet_approved' ) ;
#92 = PERSON ( 'NEURÈENÝ', 'NEURÈENÝ', 'NEURÈENÝ', ('NEURÈENÝ'), ('NEURÈENÝ'), ('NEURÈENÝ') ) ;
#93 = APPROVAL_PERSON_ORGANIZATION ( #242, #130, #267 ) ;
#94 = CARTESIAN_POINT ( 'NONE',  ( 0.000000000000000000, 0.000000000000000000, 0.000000000000000000 ) ) ;
#95 = PRODUCT ( 'e15b', 'e15b', '', ( #286 ) ) ;
#96 = EDGE_CURVE ( 'NONE', #250, #14, #35, .T. ) ;
#97 = CALENDAR_DATE ( 2022, 7, 7 ) ;
#98 = ORIENTED_EDGE ( 'NONE', *, *, #297, .T. ) ;
#99 = COORDINATED_UNIVERSAL_TIME_OFFSET ( 1, 0, .AHEAD. ) ;
#100 = EDGE_LOOP ( 'NONE', ( #179, #200, #112, #204 ) ) ;
#101 = DATE_AND_TIME ( #261, #185 ) ;
#102 = TOROIDAL_SURFACE ( 'NONE', #280, 3.700000000000000178, 0.2000000000000000111 ) ;
#103 = ORIENTED_EDGE ( 'NONE', *, *, #60, .F. ) ;
#104 = CC_DESIGN_PERSON_AND_ORGANIZATION_ASSIGNMENT ( #216, #5, ( #307 ) ) ;
#105 = DATE_AND_TIME ( #271, #228 ) ;
#106 = FACE_OUTER_BOUND ( 'NONE', #150, .T. ) ;
#107 = ORIENTED_EDGE ( 'NONE', *, *, #30, .T. ) ;
#108 = SECURITY_CLASSIFICATION ( '', '', #220 ) ;
#109 = DIRECTION ( 'NONE',  ( 1.000000000000000000, 0.000000000000000000, 0.000000000000000000 ) ) ;
#110 = APPLICATION_CONTEXT ( 'configuration controlled 3d designs of mechanical parts and assemblies' ) ;
#111 = DIRECTION ( 'NONE',  ( -0.000000000000000000, -0.000000000000000000, -1.000000000000000000 ) ) ;
#112 = ORIENTED_EDGE ( 'NONE', *, *, #224, .T. ) ;
#113 = CARTESIAN_POINT ( 'NONE',  ( -6.000000000000000888, 0.000000000000000000, 0.000000000000000000 ) ) ;
#114 = DIRECTION ( 'NONE',  ( 0.000000000000000000, 0.000000000000000000, 1.000000000000000000 ) ) ;
#115 = VECTOR ( 'NONE', #276, 1000.000000000000000 ) ;
#116 = DIRECTION ( 'NONE',  ( -0.000000000000000000, -0.000000000000000000, -1.000000000000000000 ) ) ;
#117 = CC_DESIGN_DATE_AND_TIME_ASSIGNMENT ( #289, #153, ( #108 ) ) ;
#118 = AXIS2_PLACEMENT_3D ( 'NONE', #281, #114, #192 ) ;
#119 = CARTESIAN_POINT ( 'NONE',  ( 0.000000000000000000, 0.000000000000000000, 5.199999999999996625 ) ) ;
#120 = FACE_OUTER_BOUND ( 'NONE', #265, .T. ) ;
#121 = EDGE_CURVE ( 'NONE', #17, #78, #183, .T. ) ;
#122 = DIRECTION ( 'NONE',  ( 1.000000000000000000, 0.000000000000000000, 0.000000000000000000 ) ) ;
#123 = ORIENTED_EDGE ( 'NONE', *, *, #121, .T. ) ;
#124 = PRODUCT_DEFINITION_FORMATION_WITH_SPECIFIED_SOURCE ( 'LIBOVOLNÝ', '', #95, .NOT_KNOWN. ) ;
#125 = CIRCLE ( 'NONE', #234, 3.500000000000000000 ) ;
#126 = APPLICATION_PROTOCOL_DEFINITION ( 'international standard', 'config_control_design', 1994, #110 ) ;
#127 = APPLICATION_PROTOCOL_DEFINITION ( 'international standard', 'config_control_design', 1994, #128 ) ;
#128 = APPLICATION_CONTEXT ( 'configuration controlled 3d designs of mechanical parts and assemblies' ) ;
#129 = AXIS2_PLACEMENT_3D ( 'NONE', #58, #299, #164 ) ;
#130 = APPROVAL ( #6, 'NEURÈENÝ' ) ;
#131 = ADVANCED_BREP_SHAPE_REPRESENTATION ( 'e15b', ( #239, #32 ), #189 ) ;
#132 = AXIS2_PLACEMENT_3D ( 'NONE', #65, #236, #43 ) ;
#133 = EDGE_LOOP ( 'NONE', ( #296, #136, #107, #247 ) ) ;
#134 = CARTESIAN_POINT ( 'NONE',  ( 6.000000000000000888, 7.347880794884120722E-16, 0.000000000000000000 ) ) ;
#135 = CC_DESIGN_PERSON_AND_ORGANIZATION_ASSIGNMENT ( #287, #270, ( #124 ) ) ;
#136 = ORIENTED_EDGE ( 'NONE', *, *, #272, .F. ) ;
#137 = AXIS2_PLACEMENT_3D ( 'NONE', #274, #38, #109 ) ;
#138 = CARTESIAN_POINT ( 'NONE',  ( -3.700000000000000178, 4.531193156845206201E-16, 5.199999999999996625 ) ) ;
#139 = VERTEX_POINT ( 'NONE', #61 ) ;
#140 = ADVANCED_FACE ( 'NONE', ( #161 ), #251, .T. ) ;
#141 = PRODUCT_DEFINITION_SHAPE ( 'NONE', 'NONE',  #307 ) ;
#142 = DIRECTION ( 'NONE',  ( 0.000000000000000000, 0.000000000000000000, -1.000000000000000000 ) ) ;
#143 = AXIS2_PLACEMENT_3D ( 'NONE', #145, #187, #257 ) ;
#144 = CARTESIAN_POINT ( 'NONE',  ( 0.000000000000000000, 0.000000000000000000, 5.000000000000000000 ) ) ;
#145 = CARTESIAN_POINT ( 'NONE',  ( 0.000000000000000000, 0.000000000000000000, 5.000000000000000000 ) ) ;
#146 = APPROVAL ( #31, 'NEURÈENÝ' ) ;
#147 = DIRECTION ( 'NONE',  ( 0.000000000000000000, 0.000000000000000000, 1.000000000000000000 ) ) ;
#148 = CARTESIAN_POINT ( 'NONE',  ( 0.000000000000000000, 0.000000000000000000, 130.0000000000000000 ) ) ;
#149 = EDGE_CURVE ( 'NONE', #294, #197, #21, .T. ) ;
#150 = EDGE_LOOP ( 'NONE', ( #249, #227, #123, #275 ) ) ;
#151 = DIRECTION ( 'NONE',  ( 0.000000000000000000, 0.000000000000000000, 1.000000000000000000 ) ) ;
#152 = LOCAL_TIME ( 14, 38, 0.000000000000000000, #99 ) ;
#153 = DATE_TIME_ROLE ( 'classification_date' ) ;
#154 =( NAMED_UNIT ( * ) PLANE_ANGLE_UNIT ( ) SI_UNIT ( $, .RADIAN. ) );
#155 = ORIENTED_EDGE ( 'NONE', *, *, #11, .T. ) ;
#156 = CARTESIAN_POINT ( 'NONE',  ( 0.000000000000000000, 0.000000000000000000, 5.000000000000000000 ) ) ;
#157 = CC_DESIGN_PERSON_AND_ORGANIZATION_ASSIGNMENT ( #52, #29, ( #124 ) ) ;
#158 = DIRECTION ( 'NONE',  ( 1.000000000000000000, 0.000000000000000000, 0.000000000000000000 ) ) ;
#159 = DIRECTION ( 'NONE',  ( -0.000000000000000000, -0.000000000000000000, -1.000000000000000000 ) ) ;
#160 = VECTOR ( 'NONE', #256, 1000.000000000000000 ) ;
#161 = FACE_OUTER_BOUND ( 'NONE', #100, .T. ) ;
#162 = CIRCLE ( 'NONE', #132, 6.000000000000000888 ) ;
#163 = APPROVAL_DATE_TIME ( #105, #146 ) ;
#164 = DIRECTION ( 'NONE',  ( 1.000000000000000000, 0.000000000000000000, 0.000000000000000000 ) ) ;
#165 = ADVANCED_FACE ( 'NONE', ( #306 ), #69, .T. ) ;
#166 = DIRECTION ( 'NONE',  ( 1.000000000000000000, 0.000000000000000000, 0.000000000000000000 ) ) ;
#167 = DIRECTION ( 'NONE',  ( 1.000000000000000000, 0.000000000000000000, 0.000000000000000000 ) ) ;
#168 = FACE_OUTER_BOUND ( 'NONE', #225, .T. ) ;
#169 = CARTESIAN_POINT ( 'NONE',  ( 0.000000000000000000, 0.000000000000000000, 130.0000000000000000 ) ) ;
#170 = VECTOR ( 'NONE', #273, 1000.000000000000000 ) ;
#171 = CARTESIAN_POINT ( 'NONE',  ( 0.000000000000000000, 0.000000000000000000, 5.199999999999996625 ) ) ;
#172 = ORGANIZATION ( 'NEURÈENÝ', 'NEURÈENÝ', '' ) ;
#173 = ORIENTED_EDGE ( 'NONE', *, *, #191, .T. ) ;
#174 = CIRCLE ( 'NONE', #268, 0.2000000000000000944 ) ;
#175 = ORIENTED_EDGE ( 'NONE', *, *, #121, .F. ) ;
#176 = EDGE_CURVE ( 'NONE', #232, #18, #246, .T. ) ;
#177 = EDGE_LOOP ( 'NONE', ( #217, #288, #10, #49 ) ) ;
#178 = COORDINATED_UNIVERSAL_TIME_OFFSET ( 1, 0, .AHEAD. ) ;
#179 = ORIENTED_EDGE ( 'NONE', *, *, #241, .F. ) ;
#180 = VECTOR ( 'NONE', #259, 1000.000000000000000 ) ;
#181 = DIRECTION ( 'NONE',  ( 0.000000000000000000, 0.000000000000000000, 1.000000000000000000 ) ) ;
#182 = EDGE_LOOP ( 'NONE', ( #208, #79 ) ) ;
#183 = LINE ( 'NONE', #62, #115 ) ;
#184 = EDGE_LOOP ( 'NONE', ( #33, #221 ) ) ;
#185 = LOCAL_TIME ( 14, 38, 0.000000000000000000, #12 ) ;
#186 = DIRECTION ( 'NONE',  ( 0.000000000000000000, -1.000000000000000000, 0.000000000000000000 ) ) ;
#187 = DIRECTION ( 'NONE',  ( -0.000000000000000000, -0.000000000000000000, -1.000000000000000000 ) ) ;
#188 = ADVANCED_FACE ( 'NONE', ( #238 ), #209, .F. ) ;
#189 =( GEOMETRIC_REPRESENTATION_CONTEXT ( 3 ) GLOBAL_UNCERTAINTY_ASSIGNED_CONTEXT ( ( #266 ) ) GLOBAL_UNIT_ASSIGNED_CONTEXT ( ( #222, #154, #70 ) ) REPRESENTATION_CONTEXT ( 'NONE', 'WORKASPACE' ) );
#190 = PLANE ( 'NONE',  #194 ) ;
#191 = EDGE_CURVE ( 'NONE', #294, #17, #125, .T. ) ;
#192 = DIRECTION ( 'NONE',  ( 1.000000000000000000, 0.000000000000000000, 0.000000000000000000 ) ) ;
#193 = CLOSED_SHELL ( 'NONE', ( #215, #165, #140, #64, #292, #188, #26, #263, #210 ) ) ;
#194 = AXIS2_PLACEMENT_3D ( 'NONE', #144, #147, #235 ) ;
#195 = COORDINATED_UNIVERSAL_TIME_OFFSET ( 1, 0, .AHEAD. ) ;
#196 = DATE_AND_TIME ( #97, #260 ) ;
#197 = VERTEX_POINT ( 'NONE', #63 ) ;
#198 = CALENDAR_DATE ( 2022, 7, 7 ) ;
#199 = PERSON_AND_ORGANIZATION ( #92, #172 ) ;
#200 = ORIENTED_EDGE ( 'NONE', *, *, #230, .T. ) ;
#201 = EDGE_CURVE ( 'NONE', #197, #18, #46, .T. ) ;
#202 = CYLINDRICAL_SURFACE ( 'NONE', #302, 3.500000000000000000 ) ;
#203 = CC_DESIGN_APPROVAL ( #130, ( #307 ) ) ;
#204 = ORIENTED_EDGE ( 'NONE', *, *, #30, .F. ) ;
#205 = CARTESIAN_POINT ( 'NONE',  ( 0.000000000000000000, 0.000000000000000000, 0.000000000000000000 ) ) ;
#206 = CARTESIAN_POINT ( 'NONE',  ( 6.000000000000000888, 7.347880794884120722E-16, 5.000000000000000000 ) ) ;
#207 = CIRCLE ( 'NONE', #51, 3.500000000000000000 ) ;
#208 = ORIENTED_EDGE ( 'NONE', *, *, #82, .T. ) ;
#209 = PLANE ( 'NONE',  #7 ) ;
#210 = ADVANCED_FACE ( 'NONE', ( #120 ), #102, .F. ) ;
#211 = DIRECTION ( 'NONE',  ( -1.000000000000000000, 0.000000000000000000, 0.000000000000000000 ) ) ;
#212 = AXIS2_PLACEMENT_3D ( 'NONE', #205, #300, #301 ) ;
#213 = CARTESIAN_POINT ( 'NONE',  ( -3.700000000000000178, 4.531193156845206201E-16, 4.999999999999998224 ) ) ;
#214 = DIRECTION ( 'NONE',  ( 0.000000000000000000, 0.000000000000000000, 1.000000000000000000 ) ) ;
#215 = ADVANCED_FACE ( 'NONE', ( #252 ), #255, .F. ) ;
#216 = PERSON_AND_ORGANIZATION ( #92, #172 ) ;
#217 = ORIENTED_EDGE ( 'NONE', *, *, #41, .F. ) ;
#218 = LOCAL_TIME ( 14, 38, 0.000000000000000000, #195 ) ;
#219 = APPROVAL_ROLE ( '' ) ;
#220 = SECURITY_CLASSIFICATION_LEVEL ( 'unclassified' ) ;
#221 = ORIENTED_EDGE ( 'NONE', *, *, #241, .T. ) ;
#222 =( LENGTH_UNIT ( ) NAMED_UNIT ( * ) SI_UNIT ( .MILLI., .METRE. ) );
#223 = ORIENTED_EDGE ( 'NONE', *, *, #96, .F. ) ;
#224 = EDGE_CURVE ( 'NONE', #14, #250, #37, .T. ) ;
#225 = EDGE_LOOP ( 'NONE', ( #155, #173 ) ) ;
#226 = CYLINDRICAL_SURFACE ( 'NONE', #88, 6.000000000000000888 ) ;
#227 = ORIENTED_EDGE ( 'NONE', *, *, #11, .F. ) ;
#228 = LOCAL_TIME ( 14, 38, 0.000000000000000000, #178 ) ;
#229 = DIRECTION ( 'NONE',  ( -1.000000000000000000, 1.224646799147350742E-16, 0.000000000000000000 ) ) ;
#230 = EDGE_CURVE ( 'NONE', #75, #14, #278, .T. ) ;
#231 = ORIENTED_EDGE ( 'NONE', *, *, #176, .F. ) ;
#232 = VERTEX_POINT ( 'NONE', #213 ) ;
#233 = DIRECTION ( 'NONE',  ( 0.000000000000000000, 0.000000000000000000, 1.000000000000000000 ) ) ;
#234 = AXIS2_PLACEMENT_3D ( 'NONE', #304, #254, #166 ) ;
#235 = DIRECTION ( 'NONE',  ( 1.000000000000000000, 0.000000000000000000, -0.000000000000000000 ) ) ;
#236 = DIRECTION ( 'NONE',  ( 0.000000000000000000, 0.000000000000000000, 1.000000000000000000 ) ) ;
#237 = CARTESIAN_POINT ( 'NONE',  ( 3.500000000000000000, 4.286263797015736595E-16, 130.0000000000000000 ) ) ;
#238 = FACE_OUTER_BOUND ( 'NONE', #15, .T. ) ;
#239 = MANIFOLD_SOLID_BREP ( 'Zaoblit1', #193 ) ;
#240 = ORIENTED_EDGE ( 'NONE', *, *, #191, .F. ) ;
#241 = EDGE_CURVE ( 'NONE', #75, #139, #284, .T. ) ;
#242 = PERSON_AND_ORGANIZATION ( #92, #172 ) ;
#243 = EDGE_LOOP ( 'NONE', ( #240, #290, #98, #175 ) ) ;
#244 = PERSON_AND_ORGANIZATION ( #92, #172 ) ;
#245 = PERSON_AND_ORGANIZATION ( #92, #172 ) ;
#246 = CIRCLE ( 'NONE', #143, 3.700000000000000178 ) ;
#247 = ORIENTED_EDGE ( 'NONE', *, *, #96, .T. ) ;
#248 = CARTESIAN_POINT ( 'NONE',  ( 0.000000000000000000, 0.000000000000000000, 5.199999999999996625 ) ) ;
#249 = ORIENTED_EDGE ( 'NONE', *, *, #149, .F. ) ;
#250 = VERTEX_POINT ( 'NONE', #113 ) ;
#251 = CYLINDRICAL_SURFACE ( 'NONE', #23, 6.000000000000000888 ) ;
#252 = FACE_OUTER_BOUND ( 'NONE', #177, .T. ) ;
#253 = AXIS2_PLACEMENT_3D ( 'NONE', #169, #87, #25 ) ;
#254 = DIRECTION ( 'NONE',  ( 0.000000000000000000, 0.000000000000000000, 1.000000000000000000 ) ) ;
#255 = TOROIDAL_SURFACE ( 'NONE', #303, 3.700000000000000178, 0.2000000000000000111 ) ;
#256 = DIRECTION ( 'NONE',  ( -0.000000000000000000, -0.000000000000000000, -1.000000000000000000 ) ) ;
#257 = DIRECTION ( 'NONE',  ( 1.000000000000000000, 0.000000000000000000, 0.000000000000000000 ) ) ;
#258 = CIRCLE ( 'NONE', #129, 3.500000000000000000 ) ;
#259 = DIRECTION ( 'NONE',  ( -0.000000000000000000, -0.000000000000000000, -1.000000000000000000 ) ) ;
#260 = LOCAL_TIME ( 14, 38, 0.000000000000000000, #8 ) ;
#261 = CALENDAR_DATE ( 2022, 7, 7 ) ;
#262 = ORIENTED_EDGE ( 'NONE', *, *, #297, .F. ) ;
#263 = ADVANCED_FACE ( 'NONE', ( #168 ), #305, .T. ) ;
#264 = DATE_AND_TIME ( #71, #218 ) ;
#265 = EDGE_LOOP ( 'NONE', ( #103, #262, #50, #231 ) ) ;
#266 = UNCERTAINTY_MEASURE_WITH_UNIT (LENGTH_MEASURE( 1.000000000000000082E-05 ), #222, 'distance_accuracy_value', 'NONE');
#267 = APPROVAL_ROLE ( '' ) ;
#268 = AXIS2_PLACEMENT_3D ( 'NONE', #138, #83, #229 ) ;
#269 = CC_DESIGN_APPROVAL ( #146, ( #108 ) ) ;
#270 = PERSON_AND_ORGANIZATION_ROLE ( 'creator' ) ;
#271 = CALENDAR_DATE ( 2022, 7, 7 ) ;
#272 = EDGE_CURVE ( 'NONE', #139, #75, #162, .T. ) ;
#273 = DIRECTION ( 'NONE',  ( -0.000000000000000000, -0.000000000000000000, -1.000000000000000000 ) ) ;
#274 = CARTESIAN_POINT ( 'NONE',  ( 0.000000000000000000, 0.000000000000000000, 5.000000000000000000 ) ) ;
#275 = ORIENTED_EDGE ( 'NONE', *, *, #41, .T. ) ;
#276 = DIRECTION ( 'NONE',  ( -0.000000000000000000, -0.000000000000000000, -1.000000000000000000 ) ) ;
#277 = CARTESIAN_POINT ( 'NONE',  ( -6.000000000000000888, 0.000000000000000000, 5.000000000000000000 ) ) ;
#278 = LINE ( 'NONE', #283, #180 ) ;
#279 = DIRECTION ( 'NONE',  ( -0.000000000000000000, -0.000000000000000000, -1.000000000000000000 ) ) ;
#280 = AXIS2_PLACEMENT_3D ( 'NONE', #2, #67, #167 ) ;
#281 = CARTESIAN_POINT ( 'NONE',  ( 0.000000000000000000, 0.000000000000000000, 0.000000000000000000 ) ) ;
#282 = DIRECTION ( 'NONE',  ( 1.000000000000000000, 0.000000000000000000, -0.000000000000000000 ) ) ;
#283 = CARTESIAN_POINT ( 'NONE',  ( 6.000000000000000888, 7.347880794884120722E-16, 5.000000000000000000 ) ) ;
#284 = CIRCLE ( 'NONE', #19, 6.000000000000000888 ) ;
#285 = DESIGN_CONTEXT ( 'detailed design', #128, 'design' ) ;
#286 = MECHANICAL_CONTEXT ( 'NONE', #110, 'mechanical' ) ;
#287 = PERSON_AND_ORGANIZATION ( #92, #172 ) ;
#288 = ORIENTED_EDGE ( 'NONE', *, *, #60, .T. ) ;
#289 = DATE_AND_TIME ( #198, #152 ) ;
#290 = ORIENTED_EDGE ( 'NONE', *, *, #149, .T. ) ;
#291 = AXIS2_PLACEMENT_3D ( 'NONE', #148, #116, #47 ) ;
#292 = ADVANCED_FACE ( 'NONE', ( #22, #45 ), #190, .T. ) ;
#293 = APPROVAL_ROLE ( '' ) ;
#294 = VERTEX_POINT ( 'NONE', #237 ) ;
#295 = SHAPE_DEFINITION_REPRESENTATION ( #141, #131 ) ;
#296 = ORIENTED_EDGE ( 'NONE', *, *, #230, .F. ) ;
#297 = EDGE_CURVE ( 'NONE', #197, #78, #42, .T. ) ;
#298 = APPROVAL_PERSON_ORGANIZATION ( #199, #77, #219 ) ;
#299 = DIRECTION ( 'NONE',  ( 0.000000000000000000, 0.000000000000000000, 1.000000000000000000 ) ) ;
#300 = DIRECTION ( 'NONE',  ( 0.000000000000000000, 0.000000000000000000, 1.000000000000000000 ) ) ;
#301 = DIRECTION ( 'NONE',  ( 1.000000000000000000, 0.000000000000000000, 0.000000000000000000 ) ) ;
#302 = AXIS2_PLACEMENT_3D ( 'NONE', #84, #159, #81 ) ;
#303 = AXIS2_PLACEMENT_3D ( 'NONE', #171, #85, #68 ) ;
#304 = CARTESIAN_POINT ( 'NONE',  ( 0.000000000000000000, 0.000000000000000000, 130.0000000000000000 ) ) ;
#305 = PLANE ( 'NONE',  #253 ) ;
#306 = FACE_OUTER_BOUND ( 'NONE', #243, .T. ) ;
#307 = PRODUCT_DEFINITION ( 'NEZNÁMÝ', '', #124, #285 ) ;
ENDSEC;
END-ISO-10303-21;
