ISO-10303-21;
HEADER;
FILE_DESCRIPTION (( 'STEP AP203' ),
    '1' );
FILE_NAME ('30a6.STEP',
    '2022-07-07T12:44:30',
    ( '' ),
    ( '' ),
    'SwSTEP 2.0',
    'SolidWorks 2019',
    '' );
FILE_SCHEMA (( 'CONFIG_CONTROL_DESIGN' ));
ENDSEC;

DATA;
#1 = DATE_TIME_ROLE ( 'creation_date' ) ;
#2 =( GEOMETRIC_REPRESENTATION_CONTEXT ( 3 ) GLOBAL_UNCERTAINTY_ASSIGNED_CONTEXT ( ( #153 ) ) GLOBAL_UNIT_ASSIGNED_CONTEXT ( ( #113, #179, #296 ) ) REPRESENTATION_CONTEXT ( 'NONE', 'WORKASPACE' ) );
#3 = EDGE_CURVE ( 'NONE', #165, #26, #53, .T. ) ;
#4 = CIRCLE ( 'NONE', #216, 2.600000000000000089 ) ;
#5 = DIRECTION ( 'NONE',  ( 1.000000000000000000, 0.000000000000000000, 0.000000000000000000 ) ) ;
#6 = CARTESIAN_POINT ( 'NONE',  ( 5.000000000000000000, 6.123233995736766282E-16, 3.000000000000000000 ) ) ;
#7 = DIRECTION ( 'NONE',  ( 1.000000000000000000, 0.000000000000000000, 0.000000000000000000 ) ) ;
#8 = DIRECTION ( 'NONE',  ( -1.000000000000000000, 0.000000000000000000, 0.000000000000000000 ) ) ;
#9 = CARTESIAN_POINT ( 'NONE',  ( 0.000000000000000000, 0.000000000000000000, 3.000000000000000000 ) ) ;
#10 = DIRECTION ( 'NONE',  ( 1.000000000000000000, 0.000000000000000000, 0.000000000000000000 ) ) ;
#11 = DIRECTION ( 'NONE',  ( -0.000000000000000000, -0.000000000000000000, -1.000000000000000000 ) ) ;
#12 = CARTESIAN_POINT ( 'NONE',  ( 5.000000000000000000, 6.123233995736766282E-16, 0.000000000000000000 ) ) ;
#13 = DIRECTION ( 'NONE',  ( -0.000000000000000000, -0.000000000000000000, -1.000000000000000000 ) ) ;
#14 = AXIS2_PLACEMENT_3D ( 'NONE', #152, #189, #267 ) ;
#15 = PERSON_AND_ORGANIZATION ( #92, #199 ) ;
#16 = APPROVAL_ROLE ( '' ) ;
#17 = EDGE_LOOP ( 'NONE', ( #122, #148 ) ) ;
#18 = ADVANCED_FACE ( 'NONE', ( #52 ), #242, .F. ) ;
#19 = CALENDAR_DATE ( 2022, 7, 7 ) ;
#20 = CC_DESIGN_PERSON_AND_ORGANIZATION_ASSIGNMENT ( #21, #256, ( #188 ) ) ;
#21 = PERSON_AND_ORGANIZATION ( #92, #199 ) ;
#22 = ORIENTED_EDGE ( 'NONE', *, *, #28, .F. ) ;
#23 = APPLICATION_PROTOCOL_DEFINITION ( 'international standard', 'config_control_design', 1994, #84 ) ;
#24 = ORIENTED_EDGE ( 'NONE', *, *, #85, .F. ) ;
#25 = EDGE_CURVE ( 'NONE', #257, #163, #102, .T. ) ;
#26 = VERTEX_POINT ( 'NONE', #76 ) ;
#27 = DIRECTION ( 'NONE',  ( -0.000000000000000000, -0.000000000000000000, -1.000000000000000000 ) ) ;
#28 = EDGE_CURVE ( 'NONE', #94, #168, #263, .T. ) ;
#29 = CARTESIAN_POINT ( 'NONE',  ( 0.000000000000000000, 0.000000000000000000, 3.199999999999980638 ) ) ;
#30 = AXIS2_PLACEMENT_3D ( 'NONE', #265, #151, #104 ) ;
#31 = FACE_OUTER_BOUND ( 'NONE', #214, .T. ) ;
#32 = DIRECTION ( 'NONE',  ( 0.000000000000000000, 0.000000000000000000, 1.000000000000000000 ) ) ;
#33 = CARTESIAN_POINT ( 'NONE',  ( 0.000000000000000000, 0.000000000000000000, 0.000000000000000000 ) ) ;
#34 = DIRECTION ( 'NONE',  ( 1.000000000000000000, 0.000000000000000000, -0.000000000000000000 ) ) ;
#35 = AXIS2_PLACEMENT_3D ( 'NONE', #160, #13, #111 ) ;
#36 = CARTESIAN_POINT ( 'NONE',  ( -2.799999999999999822, 3.429011037612589276E-16, 2.999999999999990674 ) ) ;
#37 = CARTESIAN_POINT ( 'NONE',  ( -5.000000000000000000, 0.000000000000000000, 3.000000000000000000 ) ) ;
#38 = MECHANICAL_CONTEXT ( 'NONE', #223, 'mechanical' ) ;
#39 = AXIS2_PLACEMENT_3D ( 'NONE', #29, #217, #75 ) ;
#40 = VERTEX_POINT ( 'NONE', #212 ) ;
#41 = EDGE_CURVE ( 'NONE', #26, #168, #210, .T. ) ;
#42 = COORDINATED_UNIVERSAL_TIME_OFFSET ( 1, 0, .AHEAD. ) ;
#43 = APPROVAL ( #180, 'NEURÈENÝ' ) ;
#44 = ORIENTED_EDGE ( 'NONE', *, *, #41, .F. ) ;
#45 = COORDINATED_UNIVERSAL_TIME_OFFSET ( 1, 0, .AHEAD. ) ;
#46 = ORIENTED_EDGE ( 'NONE', *, *, #142, .F. ) ;
#47 = ORIENTED_EDGE ( 'NONE', *, *, #77, .F. ) ;
#48 = AXIS2_PLACEMENT_3D ( 'NONE', #185, #146, #96 ) ;
#49 = ORIENTED_EDGE ( 'NONE', *, *, #63, .T. ) ;
#50 = CIRCLE ( 'NONE', #204, 0.2000000000000000944 ) ;
#51 = DIRECTION ( 'NONE',  ( 0.000000000000000000, 0.000000000000000000, 1.000000000000000000 ) ) ;
#52 = FACE_OUTER_BOUND ( 'NONE', #232, .T. ) ;
#53 = LINE ( 'NONE', #238, #273 ) ;
#54 = EDGE_CURVE ( 'NONE', #40, #144, #55, .T. ) ;
#55 = LINE ( 'NONE', #6, #279 ) ;
#56 = DIRECTION ( 'NONE',  ( -0.000000000000000000, -0.000000000000000000, -1.000000000000000000 ) ) ;
#57 = CC_DESIGN_APPROVAL ( #43, ( #188 ) ) ;
#58 = DIRECTION ( 'NONE',  ( 1.000000000000000000, 0.000000000000000000, 0.000000000000000000 ) ) ;
#59 = DIRECTION ( 'NONE',  ( 0.000000000000000000, 0.000000000000000000, 1.000000000000000000 ) ) ;
#60 = FACE_OUTER_BOUND ( 'NONE', #205, .T. ) ;
#61 = DIRECTION ( 'NONE',  ( -1.000000000000000000, 1.224646799147353207E-16, 0.000000000000000000 ) ) ;
#62 = DATE_AND_TIME ( #19, #291 ) ;
#63 = EDGE_CURVE ( 'NONE', #168, #26, #4, .T. ) ;
#64 = ORIENTED_EDGE ( 'NONE', *, *, #114, .T. ) ;
#65 = CALENDAR_DATE ( 2022, 7, 7 ) ;
#66 = ORIENTED_EDGE ( 'NONE', *, *, #234, .F. ) ;
#67 = CC_DESIGN_DATE_AND_TIME_ASSIGNMENT ( #208, #254, ( #89 ) ) ;
#68 = APPROVAL_STATUS ( 'not_yet_approved' ) ;
#69 = CALENDAR_DATE ( 2022, 7, 7 ) ;
#70 = CLOSED_SHELL ( 'NONE', ( #18, #237, #275, #252, #213, #132, #109, #191, #74 ) ) ;
#71 = COORDINATED_UNIVERSAL_TIME_OFFSET ( 1, 0, .AHEAD. ) ;
#72 = CARTESIAN_POINT ( 'NONE',  ( 0.000000000000000000, 0.000000000000000000, 3.000000000000000000 ) ) ;
#73 = CARTESIAN_POINT ( 'NONE',  ( 2.799999999999999822, 0.000000000000000000, 3.199999999999980638 ) ) ;
#74 = ADVANCED_FACE ( 'NONE', ( #190 ), #80, .F. ) ;
#75 = DIRECTION ( 'NONE',  ( 1.000000000000000000, 0.000000000000000000, 0.000000000000000000 ) ) ;
#76 = CARTESIAN_POINT ( 'NONE',  ( -2.600000000000000089, 0.000000000000000000, 3.199999999999980638 ) ) ;
#77 = EDGE_CURVE ( 'NONE', #168, #163, #258, .T. ) ;
#78 = CARTESIAN_POINT ( 'NONE',  ( 0.000000000000000000, 0.000000000000000000, 0.000000000000000000 ) ) ;
#79 = PRODUCT_RELATED_PRODUCT_CATEGORY ( 'detail', '', ( #250 ) ) ;
#80 = TOROIDAL_SURFACE ( 'NONE', #225, 2.799999999999999822, 0.2000000000000000111 ) ;
#81 = CYLINDRICAL_SURFACE ( 'NONE', #169, 5.000000000000000000 ) ;
#82 = FACE_OUTER_BOUND ( 'NONE', #186, .T. ) ;
#83 = CARTESIAN_POINT ( 'NONE',  ( 0.000000000000000000, 0.000000000000000000, 403.0000000000000000 ) ) ;
#84 = APPLICATION_CONTEXT ( 'configuration controlled 3d designs of mechanical parts and assemblies' ) ;
#85 = EDGE_CURVE ( 'NONE', #94, #165, #264, .T. ) ;
#86 = DIRECTION ( 'NONE',  ( -1.000000000000000000, 0.000000000000000000, 0.000000000000000000 ) ) ;
#87 = AXIS2_PLACEMENT_3D ( 'NONE', #286, #266, #241 ) ;
#88 = CARTESIAN_POINT ( 'NONE',  ( 0.000000000000000000, 0.000000000000000000, 403.0000000000000000 ) ) ;
#89 = SECURITY_CLASSIFICATION ( '', '', #283 ) ;
#90 = APPLICATION_PROTOCOL_DEFINITION ( 'international standard', 'config_control_design', 1994, #223 ) ;
#91 = ORIENTED_EDGE ( 'NONE', *, *, #183, .T. ) ;
#92 = PERSON ( 'NEURÈENÝ', 'NEURÈENÝ', 'NEURÈENÝ', ('NEURÈENÝ'), ('NEURÈENÝ'), ('NEURÈENÝ') ) ;
#93 = DATE_AND_TIME ( #69, #105 ) ;
#94 = VERTEX_POINT ( 'NONE', #98 ) ;
#95 = PERSON_AND_ORGANIZATION_ROLE ( 'design_owner' ) ;
#96 = DIRECTION ( 'NONE',  ( 1.000000000000000000, 0.000000000000000000, 0.000000000000000000 ) ) ;
#97 = ORIENTED_EDGE ( 'NONE', *, *, #306, .T. ) ;
#98 = CARTESIAN_POINT ( 'NONE',  ( 2.600000000000000089, 3.184081677783118191E-16, 403.0000000000000000 ) ) ;
#99 = DIRECTION ( 'NONE',  ( -0.000000000000000000, -0.000000000000000000, -1.000000000000000000 ) ) ;
#100 = APPROVAL_PERSON_ORGANIZATION ( #227, #202, #16 ) ;
#101 = DIRECTION ( 'NONE',  ( -0.000000000000000000, -0.000000000000000000, -1.000000000000000000 ) ) ;
#102 = CIRCLE ( 'NONE', #294, 2.799999999999999822 ) ;
#103 = ORIENTED_EDGE ( 'NONE', *, *, #77, .T. ) ;
#104 = DIRECTION ( 'NONE',  ( 1.000000000000000000, 0.000000000000000000, 0.000000000000000000 ) ) ;
#105 = LOCAL_TIME ( 14, 44, 30.00000000000000000, #45 ) ;
#106 = CARTESIAN_POINT ( 'NONE',  ( 0.000000000000000000, 0.000000000000000000, 3.000000000000000000 ) ) ;
#107 = AXIS2_PLACEMENT_3D ( 'NONE', #78, #209, #187 ) ;
#108 = DIRECTION ( 'NONE',  ( -0.000000000000000000, -0.000000000000000000, -1.000000000000000000 ) ) ;
#109 = ADVANCED_FACE ( 'NONE', ( #171 ), #239, .T. ) ;
#110 = CARTESIAN_POINT ( 'NONE',  ( 2.799999999999999822, 0.000000000000000000, 2.999999999999990674 ) ) ;
#111 = DIRECTION ( 'NONE',  ( -1.000000000000000000, 0.000000000000000000, 0.000000000000000000 ) ) ;
#112 = CC_DESIGN_PERSON_AND_ORGANIZATION_ASSIGNMENT ( #277, #184, ( #121 ) ) ;
#113 =( LENGTH_UNIT ( ) NAMED_UNIT ( * ) SI_UNIT ( .MILLI., .METRE. ) );
#114 = EDGE_CURVE ( 'NONE', #255, #40, #120, .T. ) ;
#115 = PERSON_AND_ORGANIZATION_ROLE ( 'creator' ) ;
#116 = CALENDAR_DATE ( 2022, 7, 7 ) ;
#117 = EDGE_LOOP ( 'NONE', ( #24, #262, #49, #307 ) ) ;
#118 = APPROVAL_ROLE ( '' ) ;
#119 = ORIENTED_EDGE ( 'NONE', *, *, #240, .T. ) ;
#120 = CIRCLE ( 'NONE', #87, 5.000000000000000000 ) ;
#121 = PRODUCT_DEFINITION ( 'NEZNÁMÝ', '', #188, #270 ) ;
#122 = ORIENTED_EDGE ( 'NONE', *, *, #246, .T. ) ;
#123 = ORIENTED_EDGE ( 'NONE', *, *, #85, .T. ) ;
#124 = ORIENTED_EDGE ( 'NONE', *, *, #295, .T. ) ;
#125 = DIRECTION ( 'NONE',  ( 1.000000000000000000, 0.000000000000000000, 0.000000000000000000 ) ) ;
#126 = LOCAL_TIME ( 14, 44, 30.00000000000000000, #71 ) ;
#127 = DIRECTION ( 'NONE',  ( -0.000000000000000000, -0.000000000000000000, -1.000000000000000000 ) ) ;
#128 = CIRCLE ( 'NONE', #253, 5.000000000000000000 ) ;
#129 = PLANE ( 'NONE',  #107 ) ;
#130 = DIRECTION ( 'NONE',  ( 0.000000000000000000, 0.000000000000000000, 1.000000000000000000 ) ) ;
#131 = CC_DESIGN_APPROVAL ( #202, ( #89 ) ) ;
#132 = ADVANCED_FACE ( 'NONE', ( #31 ), #129, .F. ) ;
#133 = DIRECTION ( 'NONE',  ( 0.000000000000000000, 0.000000000000000000, 1.000000000000000000 ) ) ;
#134 = FACE_OUTER_BOUND ( 'NONE', #230, .T. ) ;
#135 = CARTESIAN_POINT ( 'NONE',  ( 0.000000000000000000, 0.000000000000000000, 403.0000000000000000 ) ) ;
#136 = PERSON_AND_ORGANIZATION ( #92, #199 ) ;
#137 = CIRCLE ( 'NONE', #198, 5.000000000000000000 ) ;
#138 = APPROVAL_STATUS ( 'not_yet_approved' ) ;
#139 = ORIENTED_EDGE ( 'NONE', *, *, #183, .F. ) ;
#140 = PERSON_AND_ORGANIZATION ( #92, #199 ) ;
#141 = EDGE_LOOP ( 'NONE', ( #149, #181, #103, #206 ) ) ;
#142 = EDGE_CURVE ( 'NONE', #40, #255, #247, .T. ) ;
#143 = PERSON_AND_ORGANIZATION ( #92, #199 ) ;
#144 = VERTEX_POINT ( 'NONE', #12 ) ;
#145 = AXIS2_PLACEMENT_3D ( 'NONE', #73, #289, #170 ) ;
#146 = DIRECTION ( 'NONE',  ( 0.000000000000000000, 0.000000000000000000, 1.000000000000000000 ) ) ;
#147 = ORIENTED_EDGE ( 'NONE', *, *, #234, .T. ) ;
#148 = ORIENTED_EDGE ( 'NONE', *, *, #25, .T. ) ;
#149 = ORIENTED_EDGE ( 'NONE', *, *, #295, .F. ) ;
#150 = ORIENTED_EDGE ( 'NONE', *, *, #54, .F. ) ;
#151 = DIRECTION ( 'NONE',  ( 0.000000000000000000, 0.000000000000000000, 1.000000000000000000 ) ) ;
#152 = CARTESIAN_POINT ( 'NONE',  ( 0.000000000000000000, 0.000000000000000000, 3.199999999999980638 ) ) ;
#153 = UNCERTAINTY_MEASURE_WITH_UNIT (LENGTH_MEASURE( 1.000000000000000082E-05 ), #113, 'distance_accuracy_value', 'NONE');
#154 = AXIS2_PLACEMENT_3D ( 'NONE', #106, #11, #176 ) ;
#155 = VERTEX_POINT ( 'NONE', #196 ) ;
#156 = CARTESIAN_POINT ( 'NONE',  ( -2.799999999999999822, 3.429011037612588783E-16, 3.199999999999980638 ) ) ;
#157 = CARTESIAN_POINT ( 'NONE',  ( 0.000000000000000000, 0.000000000000000000, 0.000000000000000000 ) ) ;
#158 = CC_DESIGN_PERSON_AND_ORGANIZATION_ASSIGNMENT ( #15, #115, ( #188 ) ) ;
#159 = CARTESIAN_POINT ( 'NONE',  ( 2.600000000000000089, 3.184081677783118191E-16, 3.199999999999980638 ) ) ;
#160 = CARTESIAN_POINT ( 'NONE',  ( 0.000000000000000000, 0.000000000000000000, 3.000000000000000000 ) ) ;
#161 = PERSON_AND_ORGANIZATION ( #92, #199 ) ;
#162 = AXIS2_PLACEMENT_3D ( 'NONE', #72, #221, #58 ) ;
#163 = VERTEX_POINT ( 'NONE', #110 ) ;
#164 = SHAPE_DEFINITION_REPRESENTATION ( #297, #211 ) ;
#165 = VERTEX_POINT ( 'NONE', #245 ) ;
#166 = AXIS2_PLACEMENT_3D ( 'NONE', #88, #194, #293 ) ;
#167 = CC_DESIGN_DATE_AND_TIME_ASSIGNMENT ( #231, #1, ( #121 ) ) ;
#168 = VERTEX_POINT ( 'NONE', #159 ) ;
#169 = AXIS2_PLACEMENT_3D ( 'NONE', #220, #56, #86 ) ;
#170 = DIRECTION ( 'NONE',  ( 0.000000000000000000, 0.000000000000000000, -1.000000000000000000 ) ) ;
#171 = FACE_OUTER_BOUND ( 'NONE', #260, .T. ) ;
#172 = DIRECTION ( 'NONE',  ( -0.000000000000000000, -0.000000000000000000, -1.000000000000000000 ) ) ;
#173 = CIRCLE ( 'NONE', #154, 2.799999999999999822 ) ;
#174 = DIRECTION ( 'NONE',  ( 1.000000000000000000, 0.000000000000000000, 0.000000000000000000 ) ) ;
#175 = CYLINDRICAL_SURFACE ( 'NONE', #166, 2.600000000000000089 ) ;
#176 = DIRECTION ( 'NONE',  ( 1.000000000000000000, 0.000000000000000000, 0.000000000000000000 ) ) ;
#177 = FACE_BOUND ( 'NONE', #17, .T. ) ;
#178 = APPROVAL ( #138, 'NEURÈENÝ' ) ;
#179 =( NAMED_UNIT ( * ) PLANE_ANGLE_UNIT ( ) SI_UNIT ( $, .RADIAN. ) );
#180 = APPROVAL_STATUS ( 'not_yet_approved' ) ;
#181 = ORIENTED_EDGE ( 'NONE', *, *, #63, .F. ) ;
#182 = APPROVAL_ROLE ( '' ) ;
#183 = EDGE_CURVE ( 'NONE', #155, #144, #128, .T. ) ;
#184 = PERSON_AND_ORGANIZATION_ROLE ( 'creator' ) ;
#185 = CARTESIAN_POINT ( 'NONE',  ( 0.000000000000000000, 0.000000000000000000, 0.000000000000000000 ) ) ;
#186 = EDGE_LOOP ( 'NONE', ( #46, #288, #119, #285 ) ) ;
#187 = DIRECTION ( 'NONE',  ( 1.000000000000000000, 0.000000000000000000, -0.000000000000000000 ) ) ;
#188 = PRODUCT_DEFINITION_FORMATION_WITH_SPECIFIED_SOURCE ( 'LIBOVOLNÝ', '', #250, .NOT_KNOWN. ) ;
#189 = DIRECTION ( 'NONE',  ( 0.000000000000000000, 0.000000000000000000, 1.000000000000000000 ) ) ;
#190 = FACE_OUTER_BOUND ( 'NONE', #141, .T. ) ;
#191 = ADVANCED_FACE ( 'NONE', ( #219 ), #272, .T. ) ;
#192 = CARTESIAN_POINT ( 'NONE',  ( 2.600000000000000089, 3.184081677783118191E-16, 403.0000000000000000 ) ) ;
#193 = LOCAL_TIME ( 14, 44, 30.00000000000000000, #305 ) ;
#194 = DIRECTION ( 'NONE',  ( -0.000000000000000000, -0.000000000000000000, -1.000000000000000000 ) ) ;
#195 = AXIS2_PLACEMENT_3D ( 'NONE', #135, #274, #34 ) ;
#196 = CARTESIAN_POINT ( 'NONE',  ( -5.000000000000000000, 0.000000000000000000, 0.000000000000000000 ) ) ;
#197 = DIRECTION ( 'NONE',  ( 1.224646799147353207E-16, 1.000000000000000000, -0.000000000000000000 ) ) ;
#198 = AXIS2_PLACEMENT_3D ( 'NONE', #33, #269, #10 ) ;
#199 = ORGANIZATION ( 'NEURÈENÝ', 'NEURÈENÝ', '' ) ;
#200 = DATE_AND_TIME ( #116, #271 ) ;
#201 = ORIENTED_EDGE ( 'NONE', *, *, #41, .T. ) ;
#202 = APPROVAL ( #68, 'NEURÈENÝ' ) ;
#203 = PERSON_AND_ORGANIZATION_ROLE ( 'classification_officer' ) ;
#204 = AXIS2_PLACEMENT_3D ( 'NONE', #156, #197, #61 ) ;
#205 = EDGE_LOOP ( 'NONE', ( #150, #302, #97, #91 ) ) ;
#206 = ORIENTED_EDGE ( 'NONE', *, *, #25, .F. ) ;
#207 = VECTOR ( 'NONE', #108, 1000.000000000000000 ) ;
#208 = DATE_AND_TIME ( #65, #193 ) ;
#209 = DIRECTION ( 'NONE',  ( 0.000000000000000000, 0.000000000000000000, 1.000000000000000000 ) ) ;
#210 = CIRCLE ( 'NONE', #14, 2.600000000000000089 ) ;
#211 = ADVANCED_BREP_SHAPE_REPRESENTATION ( '30a6', ( #233, #48 ), #2 ) ;
#212 = CARTESIAN_POINT ( 'NONE',  ( 5.000000000000000000, 6.123233995736766282E-16, 3.000000000000000000 ) ) ;
#213 = ADVANCED_FACE ( 'NONE', ( #177, #134 ), #251, .T. ) ;
#214 = EDGE_LOOP ( 'NONE', ( #139, #259 ) ) ;
#215 = ORIENTED_EDGE ( 'NONE', *, *, #246, .F. ) ;
#216 = AXIS2_PLACEMENT_3D ( 'NONE', #243, #32, #5 ) ;
#217 = DIRECTION ( 'NONE',  ( 0.000000000000000000, 0.000000000000000000, 1.000000000000000000 ) ) ;
#218 = APPROVAL_PERSON_ORGANIZATION ( #140, #43, #182 ) ;
#219 = FACE_OUTER_BOUND ( 'NONE', #228, .T. ) ;
#220 = CARTESIAN_POINT ( 'NONE',  ( 0.000000000000000000, 0.000000000000000000, 3.000000000000000000 ) ) ;
#221 = DIRECTION ( 'NONE',  ( 0.000000000000000000, 0.000000000000000000, 1.000000000000000000 ) ) ;
#222 = CYLINDRICAL_SURFACE ( 'NONE', #35, 5.000000000000000000 ) ;
#223 = APPLICATION_CONTEXT ( 'configuration controlled 3d designs of mechanical parts and assemblies' ) ;
#224 = DIRECTION ( 'NONE',  ( 1.000000000000000000, 0.000000000000000000, 0.000000000000000000 ) ) ;
#225 = AXIS2_PLACEMENT_3D ( 'NONE', #290, #51, #125 ) ;
#226 = APPROVAL_DATE_TIME ( #93, #178 ) ;
#227 = PERSON_AND_ORGANIZATION ( #92, #199 ) ;
#228 = EDGE_LOOP ( 'NONE', ( #147, #123 ) ) ;
#229 = CALENDAR_DATE ( 2022, 7, 7 ) ;
#230 = EDGE_LOOP ( 'NONE', ( #64, #235 ) ) ;
#231 = DATE_AND_TIME ( #229, #126 ) ;
#232 = EDGE_LOOP ( 'NONE', ( #44, #124, #215, #47 ) ) ;
#233 = MANIFOLD_SOLID_BREP ( 'Zaoblit1', #70 ) ;
#234 = EDGE_CURVE ( 'NONE', #165, #94, #236, .T. ) ;
#235 = ORIENTED_EDGE ( 'NONE', *, *, #142, .T. ) ;
#236 = CIRCLE ( 'NONE', #300, 2.600000000000000089 ) ;
#237 = ADVANCED_FACE ( 'NONE', ( #298 ), #175, .T. ) ;
#238 = CARTESIAN_POINT ( 'NONE',  ( -2.600000000000000089, 0.000000000000000000, 403.0000000000000000 ) ) ;
#239 = CYLINDRICAL_SURFACE ( 'NONE', #268, 2.600000000000000089 ) ;
#240 = EDGE_CURVE ( 'NONE', #144, #155, #137, .T. ) ;
#241 = DIRECTION ( 'NONE',  ( 1.000000000000000000, 0.000000000000000000, 0.000000000000000000 ) ) ;
#242 = TOROIDAL_SURFACE ( 'NONE', #39, 2.799999999999999822, 0.2000000000000000111 ) ;
#243 = CARTESIAN_POINT ( 'NONE',  ( 0.000000000000000000, 0.000000000000000000, 3.199999999999980638 ) ) ;
#244 = CARTESIAN_POINT ( 'NONE',  ( 0.000000000000000000, 0.000000000000000000, 3.000000000000000000 ) ) ;
#245 = CARTESIAN_POINT ( 'NONE',  ( -2.600000000000000089, 0.000000000000000000, 403.0000000000000000 ) ) ;
#246 = EDGE_CURVE ( 'NONE', #163, #257, #173, .T. ) ;
#247 = CIRCLE ( 'NONE', #162, 5.000000000000000000 ) ;
#248 = CARTESIAN_POINT ( 'NONE',  ( -5.000000000000000000, 0.000000000000000000, 3.000000000000000000 ) ) ;
#249 = LINE ( 'NONE', #37, #207 ) ;
#250 = PRODUCT ( '30a6', '30a6', '', ( #38 ) ) ;
#251 = PLANE ( 'NONE',  #304 ) ;
#252 = ADVANCED_FACE ( 'NONE', ( #60 ), #81, .T. ) ;
#253 = AXIS2_PLACEMENT_3D ( 'NONE', #157, #133, #174 ) ;
#254 = DATE_TIME_ROLE ( 'classification_date' ) ;
#255 = VERTEX_POINT ( 'NONE', #248 ) ;
#256 = PERSON_AND_ORGANIZATION_ROLE ( 'design_supplier' ) ;
#257 = VERTEX_POINT ( 'NONE', #36 ) ;
#258 = CIRCLE ( 'NONE', #145, 0.2000000000000000944 ) ;
#259 = ORIENTED_EDGE ( 'NONE', *, *, #240, .F. ) ;
#260 = EDGE_LOOP ( 'NONE', ( #22, #66, #278, #201 ) ) ;
#261 = APPROVAL_PERSON_ORGANIZATION ( #143, #178, #118 ) ;
#262 = ORIENTED_EDGE ( 'NONE', *, *, #28, .T. ) ;
#263 = LINE ( 'NONE', #192, #284 ) ;
#264 = CIRCLE ( 'NONE', #30, 2.600000000000000089 ) ;
#265 = CARTESIAN_POINT ( 'NONE',  ( 0.000000000000000000, 0.000000000000000000, 403.0000000000000000 ) ) ;
#266 = DIRECTION ( 'NONE',  ( 0.000000000000000000, 0.000000000000000000, 1.000000000000000000 ) ) ;
#267 = DIRECTION ( 'NONE',  ( 1.000000000000000000, 0.000000000000000000, 0.000000000000000000 ) ) ;
#268 = AXIS2_PLACEMENT_3D ( 'NONE', #292, #127, #8 ) ;
#269 = DIRECTION ( 'NONE',  ( 0.000000000000000000, 0.000000000000000000, 1.000000000000000000 ) ) ;
#270 = DESIGN_CONTEXT ( 'detailed design', #84, 'design' ) ;
#271 = LOCAL_TIME ( 14, 44, 30.00000000000000000, #42 ) ;
#272 = PLANE ( 'NONE',  #195 ) ;
#273 = VECTOR ( 'NONE', #27, 1000.000000000000000 ) ;
#274 = DIRECTION ( 'NONE',  ( 0.000000000000000000, 0.000000000000000000, 1.000000000000000000 ) ) ;
#275 = ADVANCED_FACE ( 'NONE', ( #82 ), #222, .T. ) ;
#276 = CC_DESIGN_APPROVAL ( #178, ( #121 ) ) ;
#277 = PERSON_AND_ORGANIZATION ( #92, #199 ) ;
#278 = ORIENTED_EDGE ( 'NONE', *, *, #3, .T. ) ;
#279 = VECTOR ( 'NONE', #99, 1000.000000000000000 ) ;
#280 = COORDINATED_UNIVERSAL_TIME_OFFSET ( 1, 0, .AHEAD. ) ;
#281 = APPROVAL_DATE_TIME ( #62, #43 ) ;
#282 = CC_DESIGN_PERSON_AND_ORGANIZATION_ASSIGNMENT ( #136, #95, ( #250 ) ) ;
#283 = SECURITY_CLASSIFICATION_LEVEL ( 'unclassified' ) ;
#284 = VECTOR ( 'NONE', #101, 1000.000000000000000 ) ;
#285 = ORIENTED_EDGE ( 'NONE', *, *, #306, .F. ) ;
#286 = CARTESIAN_POINT ( 'NONE',  ( 0.000000000000000000, 0.000000000000000000, 3.000000000000000000 ) ) ;
#287 = CC_DESIGN_PERSON_AND_ORGANIZATION_ASSIGNMENT ( #161, #203, ( #89 ) ) ;
#288 = ORIENTED_EDGE ( 'NONE', *, *, #54, .T. ) ;
#289 = DIRECTION ( 'NONE',  ( 0.000000000000000000, -1.000000000000000000, 0.000000000000000000 ) ) ;
#290 = CARTESIAN_POINT ( 'NONE',  ( 0.000000000000000000, 0.000000000000000000, 3.199999999999980638 ) ) ;
#291 = LOCAL_TIME ( 14, 44, 30.00000000000000000, #280 ) ;
#292 = CARTESIAN_POINT ( 'NONE',  ( 0.000000000000000000, 0.000000000000000000, 403.0000000000000000 ) ) ;
#293 = DIRECTION ( 'NONE',  ( -1.000000000000000000, 0.000000000000000000, 0.000000000000000000 ) ) ;
#294 = AXIS2_PLACEMENT_3D ( 'NONE', #9, #172, #7 ) ;
#295 = EDGE_CURVE ( 'NONE', #26, #257, #50, .T. ) ;
#296 =( NAMED_UNIT ( * ) SI_UNIT ( $, .STERADIAN. ) SOLID_ANGLE_UNIT ( ) );
#297 = PRODUCT_DEFINITION_SHAPE ( 'NONE', 'NONE',  #121 ) ;
#298 = FACE_OUTER_BOUND ( 'NONE', #117, .T. ) ;
#299 = DIRECTION ( 'NONE',  ( 1.000000000000000000, 0.000000000000000000, -0.000000000000000000 ) ) ;
#300 = AXIS2_PLACEMENT_3D ( 'NONE', #83, #59, #224 ) ;
#301 = CC_DESIGN_SECURITY_CLASSIFICATION ( #89, ( #188 ) ) ;
#302 = ORIENTED_EDGE ( 'NONE', *, *, #114, .F. ) ;
#303 = APPROVAL_DATE_TIME ( #200, #202 ) ;
#304 = AXIS2_PLACEMENT_3D ( 'NONE', #244, #130, #299 ) ;
#305 = COORDINATED_UNIVERSAL_TIME_OFFSET ( 1, 0, .AHEAD. ) ;
#306 = EDGE_CURVE ( 'NONE', #255, #155, #249, .T. ) ;
#307 = ORIENTED_EDGE ( 'NONE', *, *, #3, .F. ) ;
ENDSEC;
END-ISO-10303-21;
