ISO-10303-21;
HEADER;
FILE_DESCRIPTION (( 'STEP AP203' ),
    '1' );
FILE_NAME ('d6e5.STEP',
    '2023-03-10T07:40:13',
    ( '' ),
    ( '' ),
    'SwSTEP 2.0',
    'SolidWorks 2019',
    '' );
FILE_SCHEMA (( 'CONFIG_CONTROL_DESIGN' ));
ENDSEC;

DATA;
#1 = VECTOR ( 'NONE', #246, 1000.000000000000000 ) ;
#2 = DATE_AND_TIME ( #61, #156 ) ;
#3 = EDGE_LOOP ( 'NONE', ( #182, #13 ) ) ;
#4 = AXIS2_PLACEMENT_3D ( 'NONE', #133, #49, #208 ) ;
#5 = CIRCLE ( 'NONE', #110, 2.000000000000000000 ) ;
#6 = EDGE_LOOP ( 'NONE', ( #43, #25 ) ) ;
#7 = EDGE_LOOP ( 'NONE', ( #8, #68, #144, #168 ) ) ;
#8 = ORIENTED_EDGE ( 'NONE', *, *, #142, .F. ) ;
#9 =( GEOMETRIC_REPRESENTATION_CONTEXT ( 3 ) GLOBAL_UNCERTAINTY_ASSIGNED_CONTEXT ( ( #149 ) ) GLOBAL_UNIT_ASSIGNED_CONTEXT ( ( #235, #234, #56 ) ) REPRESENTATION_CONTEXT ( 'NONE', 'WORKASPACE' ) );
#10 = CARTESIAN_POINT ( 'NONE',  ( 1.100000000000000089, 1.347111479062088503E-16, 2.000000000000000000 ) ) ;
#11 = CARTESIAN_POINT ( 'NONE',  ( -1.100000000000000089, 0.000000000000000000, 245.0000000000000000 ) ) ;
#12 = EDGE_CURVE ( 'NONE', #172, #47, #102, .T. ) ;
#13 = ORIENTED_EDGE ( 'NONE', *, *, #142, .T. ) ;
#14 = ORIENTED_EDGE ( 'NONE', *, *, #82, .F. ) ;
#15 = CARTESIAN_POINT ( 'NONE',  ( 0.000000000000000000, 0.000000000000000000, 245.0000000000000000 ) ) ;
#16 = CC_DESIGN_PERSON_AND_ORGANIZATION_ASSIGNMENT ( #83, #42, ( #160 ) ) ;
#17 = CARTESIAN_POINT ( 'NONE',  ( -2.000000000000000000, 0.000000000000000000, 2.000000000000000000 ) ) ;
#18 = AXIS2_PLACEMENT_3D ( 'NONE', #32, #75, #33 ) ;
#19 = APPROVAL_DATE_TIME ( #240, #46 ) ;
#20 = VECTOR ( 'NONE', #203, 1000.000000000000000 ) ;
#21 = AXIS2_PLACEMENT_3D ( 'NONE', #174, #252, #188 ) ;
#22 = PERSON_AND_ORGANIZATION ( #76, #165 ) ;
#23 = PRODUCT_DEFINITION_SHAPE ( 'NONE', 'NONE',  #160 ) ;
#24 = APPROVAL_DATE_TIME ( #147, #74 ) ;
#25 = ORIENTED_EDGE ( 'NONE', *, *, #180, .F. ) ;
#26 = EDGE_LOOP ( 'NONE', ( #118, #124, #86, #14 ) ) ;
#27 = PRODUCT_RELATED_PRODUCT_CATEGORY ( 'detail', '', ( #54 ) ) ;
#28 = VERTEX_POINT ( 'NONE', #103 ) ;
#29 = MANIFOLD_SOLID_BREP ( 'Pøidat vysunutím3', #95 ) ;
#30 = LOCAL_TIME ( 8, 40, 13.00000000000000000, #197 ) ;
#31 = DIRECTION ( 'NONE',  ( 0.000000000000000000, 0.000000000000000000, 1.000000000000000000 ) ) ;
#32 = CARTESIAN_POINT ( 'NONE',  ( 0.000000000000000000, 0.000000000000000000, 2.000000000000000000 ) ) ;
#33 = DIRECTION ( 'NONE',  ( 1.000000000000000000, 0.000000000000000000, 0.000000000000000000 ) ) ;
#34 = DIRECTION ( 'NONE',  ( -0.000000000000000000, -0.000000000000000000, -1.000000000000000000 ) ) ;
#35 = ADVANCED_FACE ( 'NONE', ( #184 ), #51, .F. ) ;
#36 = PERSON_AND_ORGANIZATION_ROLE ( 'design_owner' ) ;
#37 = VERTEX_POINT ( 'NONE', #202 ) ;
#38 = APPROVAL_ROLE ( '' ) ;
#39 = PRODUCT_DEFINITION_FORMATION_WITH_SPECIFIED_SOURCE ( 'LIBOVOLNÝ', '', #54, .NOT_KNOWN. ) ;
#40 = CALENDAR_DATE ( 2023, 10, 3 ) ;
#41 = ADVANCED_FACE ( 'NONE', ( #126 ), #170, .T. ) ;
#42 = PERSON_AND_ORGANIZATION_ROLE ( 'creator' ) ;
#43 = ORIENTED_EDGE ( 'NONE', *, *, #195, .F. ) ;
#44 = ORIENTED_EDGE ( 'NONE', *, *, #245, .T. ) ;
#45 = VERTEX_POINT ( 'NONE', #169 ) ;
#46 = APPROVAL ( #177, 'NEURÈENÝ' ) ;
#47 = VERTEX_POINT ( 'NONE', #10 ) ;
#48 = CARTESIAN_POINT ( 'NONE',  ( 0.000000000000000000, 0.000000000000000000, 2.000000000000000000 ) ) ;
#49 = DIRECTION ( 'NONE',  ( -0.000000000000000000, -0.000000000000000000, -1.000000000000000000 ) ) ;
#50 = CC_DESIGN_PERSON_AND_ORGANIZATION_ASSIGNMENT ( #122, #163, ( #39 ) ) ;
#51 = PLANE ( 'NONE',  #161 ) ;
#52 = DIRECTION ( 'NONE',  ( 0.000000000000000000, 0.000000000000000000, 1.000000000000000000 ) ) ;
#53 = CIRCLE ( 'NONE', #223, 2.000000000000000000 ) ;
#54 = PRODUCT ( 'd6e5', 'd6e5', '', ( #140 ) ) ;
#55 = CARTESIAN_POINT ( 'NONE',  ( 0.000000000000000000, 0.000000000000000000, 2.000000000000000000 ) ) ;
#56 =( NAMED_UNIT ( * ) SI_UNIT ( $, .STERADIAN. ) SOLID_ANGLE_UNIT ( ) );
#57 = EDGE_CURVE ( 'NONE', #28, #37, #53, .T. ) ;
#58 = DIRECTION ( 'NONE',  ( 0.000000000000000000, 0.000000000000000000, 1.000000000000000000 ) ) ;
#59 = LOCAL_TIME ( 8, 40, 13.00000000000000000, #178 ) ;
#60 = ADVANCED_BREP_SHAPE_REPRESENTATION ( 'd6e5', ( #29, #116 ), #9 ) ;
#61 = CALENDAR_DATE ( 2023, 10, 3 ) ;
#62 = DESIGN_CONTEXT ( 'detailed design', #179, 'design' ) ;
#63 = SHAPE_DEFINITION_REPRESENTATION ( #23, #60 ) ;
#64 = APPROVAL_ROLE ( '' ) ;
#65 = EDGE_LOOP ( 'NONE', ( #128, #120, #222, #164 ) ) ;
#66 = APPROVAL_PERSON_ORGANIZATION ( #99, #74, #166 ) ;
#67 = APPROVAL_STATUS ( 'not_yet_approved' ) ;
#68 = ORIENTED_EDGE ( 'NONE', *, *, #85, .T. ) ;
#69 = DIRECTION ( 'NONE',  ( 0.000000000000000000, 0.000000000000000000, 1.000000000000000000 ) ) ;
#70 = CC_DESIGN_PERSON_AND_ORGANIZATION_ASSIGNMENT ( #81, #143, ( #106 ) ) ;
#71 = ORIENTED_EDGE ( 'NONE', *, *, #82, .T. ) ;
#72 = CARTESIAN_POINT ( 'NONE',  ( 2.000000000000000000, 2.449293598294706414E-16, 2.000000000000000000 ) ) ;
#73 = PLANE ( 'NONE',  #92 ) ;
#74 = APPROVAL ( #67, 'NEURÈENÝ' ) ;
#75 = DIRECTION ( 'NONE',  ( 0.000000000000000000, 0.000000000000000000, 1.000000000000000000 ) ) ;
#76 = PERSON ( 'NEURÈENÝ', 'NEURÈENÝ', 'NEURÈENÝ', ('NEURÈENÝ'), ('NEURÈENÝ'), ('NEURÈENÝ') ) ;
#77 = LINE ( 'NONE', #96, #121 ) ;
#78 = DIRECTION ( 'NONE',  ( -0.000000000000000000, -0.000000000000000000, -1.000000000000000000 ) ) ;
#79 = DIRECTION ( 'NONE',  ( 1.000000000000000000, 0.000000000000000000, 0.000000000000000000 ) ) ;
#80 = LOCAL_TIME ( 8, 40, 13.00000000000000000, #215 ) ;
#81 = PERSON_AND_ORGANIZATION ( #76, #165 ) ;
#82 = EDGE_CURVE ( 'NONE', #107, #219, #244, .T. ) ;
#83 = PERSON_AND_ORGANIZATION ( #76, #165 ) ;
#84 = CC_DESIGN_APPROVAL ( #46, ( #39 ) ) ;
#85 = EDGE_CURVE ( 'NONE', #45, #37, #129, .T. ) ;
#86 = ORIENTED_EDGE ( 'NONE', *, *, #180, .T. ) ;
#87 = FACE_OUTER_BOUND ( 'NONE', #3, .T. ) ;
#88 = CIRCLE ( 'NONE', #21, 1.100000000000000089 ) ;
#89 = CARTESIAN_POINT ( 'NONE',  ( 0.000000000000000000, 0.000000000000000000, 0.000000000000000000 ) ) ;
#90 = DIRECTION ( 'NONE',  ( -0.000000000000000000, -0.000000000000000000, -1.000000000000000000 ) ) ;
#91 = DIRECTION ( 'NONE',  ( -0.000000000000000000, -0.000000000000000000, -1.000000000000000000 ) ) ;
#92 = AXIS2_PLACEMENT_3D ( 'NONE', #152, #242, #230 ) ;
#93 = CYLINDRICAL_SURFACE ( 'NONE', #250, 2.000000000000000000 ) ;
#94 = EDGE_CURVE ( 'NONE', #107, #172, #205, .T. ) ;
#95 = CLOSED_SHELL ( 'NONE', ( #220, #226, #41, #114, #35, #127, #176 ) ) ;
#96 = CARTESIAN_POINT ( 'NONE',  ( -2.000000000000000000, 0.000000000000000000, 2.000000000000000000 ) ) ;
#97 = CARTESIAN_POINT ( 'NONE',  ( 0.000000000000000000, 0.000000000000000000, 0.000000000000000000 ) ) ;
#98 = DATE_AND_TIME ( #119, #30 ) ;
#99 = PERSON_AND_ORGANIZATION ( #76, #165 ) ;
#100 = EDGE_LOOP ( 'NONE', ( #227, #237, #71, #167 ) ) ;
#101 = CIRCLE ( 'NONE', #249, 2.000000000000000000 ) ;
#102 = LINE ( 'NONE', #154, #20 ) ;
#103 = CARTESIAN_POINT ( 'NONE',  ( -2.000000000000000000, 0.000000000000000000, 0.000000000000000000 ) ) ;
#104 = APPROVAL ( #251, 'NEURÈENÝ' ) ;
#105 = AXIS2_PLACEMENT_3D ( 'NONE', #48, #90, #150 ) ;
#106 = SECURITY_CLASSIFICATION ( '', '', #218 ) ;
#107 = VERTEX_POINT ( 'NONE', #247 ) ;
#108 = DIRECTION ( 'NONE',  ( 1.000000000000000000, 0.000000000000000000, -0.000000000000000000 ) ) ;
#109 = CARTESIAN_POINT ( 'NONE',  ( 0.000000000000000000, 0.000000000000000000, 2.000000000000000000 ) ) ;
#110 = AXIS2_PLACEMENT_3D ( 'NONE', #136, #233, #79 ) ;
#111 = DIRECTION ( 'NONE',  ( 0.000000000000000000, 0.000000000000000000, 1.000000000000000000 ) ) ;
#112 = DIRECTION ( 'NONE',  ( 0.000000000000000000, 0.000000000000000000, 1.000000000000000000 ) ) ;
#113 = CYLINDRICAL_SURFACE ( 'NONE', #232, 1.100000000000000089 ) ;
#114 = ADVANCED_FACE ( 'NONE', ( #151, #87 ), #73, .T. ) ;
#115 = DIRECTION ( 'NONE',  ( -1.000000000000000000, 0.000000000000000000, 0.000000000000000000 ) ) ;
#116 = AXIS2_PLACEMENT_3D ( 'NONE', #97, #58, #192 ) ;
#117 = APPLICATION_PROTOCOL_DEFINITION ( 'international standard', 'config_control_design', 1994, #179 ) ;
#118 = ORIENTED_EDGE ( 'NONE', *, *, #245, .F. ) ;
#119 = CALENDAR_DATE ( 2023, 10, 3 ) ;
#120 = ORIENTED_EDGE ( 'NONE', *, *, #132, .F. ) ;
#121 = VECTOR ( 'NONE', #175, 1000.000000000000000 ) ;
#122 = PERSON_AND_ORGANIZATION ( #76, #165 ) ;
#123 = PERSON_AND_ORGANIZATION ( #76, #165 ) ;
#124 = ORIENTED_EDGE ( 'NONE', *, *, #12, .T. ) ;
#125 = CALENDAR_DATE ( 2023, 10, 3 ) ;
#126 = FACE_OUTER_BOUND ( 'NONE', #65, .T. ) ;
#127 = ADVANCED_FACE ( 'NONE', ( #228 ), #248, .T. ) ;
#128 = ORIENTED_EDGE ( 'NONE', *, *, #85, .F. ) ;
#129 = LINE ( 'NONE', #72, #200 ) ;
#130 = AXIS2_PLACEMENT_3D ( 'NONE', #158, #111, #209 ) ;
#131 = DIRECTION ( 'NONE',  ( 0.000000000000000000, 0.000000000000000000, 1.000000000000000000 ) ) ;
#132 = EDGE_CURVE ( 'NONE', #241, #45, #211, .T. ) ;
#133 = CARTESIAN_POINT ( 'NONE',  ( 0.000000000000000000, 0.000000000000000000, 245.0000000000000000 ) ) ;
#134 = CARTESIAN_POINT ( 'NONE',  ( 0.000000000000000000, 0.000000000000000000, 245.0000000000000000 ) ) ;
#135 = APPROVAL_PERSON_ORGANIZATION ( #173, #104, #64 ) ;
#136 = CARTESIAN_POINT ( 'NONE',  ( 0.000000000000000000, 0.000000000000000000, 0.000000000000000000 ) ) ;
#137 = DIRECTION ( 'NONE',  ( -1.000000000000000000, 0.000000000000000000, 0.000000000000000000 ) ) ;
#138 = CC_DESIGN_PERSON_AND_ORGANIZATION_ASSIGNMENT ( #212, #36, ( #54 ) ) ;
#139 = CC_DESIGN_DATE_AND_TIME_ASSIGNMENT ( #98, #196, ( #106 ) ) ;
#140 = MECHANICAL_CONTEXT ( 'NONE', #157, 'mechanical' ) ;
#141 = CC_DESIGN_APPROVAL ( #104, ( #160 ) ) ;
#142 = EDGE_CURVE ( 'NONE', #45, #241, #101, .T. ) ;
#143 = PERSON_AND_ORGANIZATION_ROLE ( 'classification_officer' ) ;
#144 = ORIENTED_EDGE ( 'NONE', *, *, #199, .T. ) ;
#145 = CC_DESIGN_PERSON_AND_ORGANIZATION_ASSIGNMENT ( #123, #193, ( #39 ) ) ;
#146 = COORDINATED_UNIVERSAL_TIME_OFFSET ( 1, 0, .AHEAD. ) ;
#147 = DATE_AND_TIME ( #125, #59 ) ;
#148 = FACE_OUTER_BOUND ( 'NONE', #214, .T. ) ;
#149 = UNCERTAINTY_MEASURE_WITH_UNIT (LENGTH_MEASURE( 1.000000000000000082E-05 ), #235, 'distance_accuracy_value', 'NONE');
#150 = DIRECTION ( 'NONE',  ( -1.000000000000000000, 0.000000000000000000, 0.000000000000000000 ) ) ;
#151 = FACE_BOUND ( 'NONE', #6, .T. ) ;
#152 = CARTESIAN_POINT ( 'NONE',  ( 0.000000000000000000, 0.000000000000000000, 2.000000000000000000 ) ) ;
#153 = APPROVAL_PERSON_ORGANIZATION ( #22, #46, #38 ) ;
#154 = CARTESIAN_POINT ( 'NONE',  ( 1.100000000000000089, 1.347111479062088503E-16, 245.0000000000000000 ) ) ;
#155 = CC_DESIGN_DATE_AND_TIME_ASSIGNMENT ( #194, #213, ( #160 ) ) ;
#156 = LOCAL_TIME ( 8, 40, 13.00000000000000000, #146 ) ;
#157 = APPLICATION_CONTEXT ( 'configuration controlled 3d designs of mechanical parts and assemblies' ) ;
#158 = CARTESIAN_POINT ( 'NONE',  ( 0.000000000000000000, 0.000000000000000000, 2.000000000000000000 ) ) ;
#159 = FACE_OUTER_BOUND ( 'NONE', #26, .T. ) ;
#160 = PRODUCT_DEFINITION ( 'NEZNÁMÝ', '', #39, #62 ) ;
#161 = AXIS2_PLACEMENT_3D ( 'NONE', #204, #31, #108 ) ;
#162 = APPROVAL_DATE_TIME ( #2, #104 ) ;
#163 = PERSON_AND_ORGANIZATION_ROLE ( 'design_supplier' ) ;
#164 = ORIENTED_EDGE ( 'NONE', *, *, #57, .T. ) ;
#165 = ORGANIZATION ( 'NEURÈENÝ', 'NEURÈENÝ', '' ) ;
#166 = APPROVAL_ROLE ( '' ) ;
#167 = ORIENTED_EDGE ( 'NONE', *, *, #195, .T. ) ;
#168 = ORIENTED_EDGE ( 'NONE', *, *, #255, .F. ) ;
#169 = CARTESIAN_POINT ( 'NONE',  ( 2.000000000000000000, 2.449293598294706414E-16, 2.000000000000000000 ) ) ;
#170 = CYLINDRICAL_SURFACE ( 'NONE', #105, 2.000000000000000000 ) ;
#171 = DIRECTION ( 'NONE',  ( 1.000000000000000000, 0.000000000000000000, 0.000000000000000000 ) ) ;
#172 = VERTEX_POINT ( 'NONE', #183 ) ;
#173 = PERSON_AND_ORGANIZATION ( #76, #165 ) ;
#174 = CARTESIAN_POINT ( 'NONE',  ( 0.000000000000000000, 0.000000000000000000, 2.000000000000000000 ) ) ;
#175 = DIRECTION ( 'NONE',  ( -0.000000000000000000, -0.000000000000000000, -1.000000000000000000 ) ) ;
#176 = ADVANCED_FACE ( 'NONE', ( #148 ), #224, .T. ) ;
#177 = APPROVAL_STATUS ( 'not_yet_approved' ) ;
#178 = COORDINATED_UNIVERSAL_TIME_OFFSET ( 1, 0, .AHEAD. ) ;
#179 = APPLICATION_CONTEXT ( 'configuration controlled 3d designs of mechanical parts and assemblies' ) ;
#180 = EDGE_CURVE ( 'NONE', #47, #219, #229, .T. ) ;
#181 = ORIENTED_EDGE ( 'NONE', *, *, #199, .F. ) ;
#182 = ORIENTED_EDGE ( 'NONE', *, *, #132, .T. ) ;
#183 = CARTESIAN_POINT ( 'NONE',  ( 1.100000000000000089, 1.347111479062088503E-16, 245.0000000000000000 ) ) ;
#184 = FACE_OUTER_BOUND ( 'NONE', #185, .T. ) ;
#185 = EDGE_LOOP ( 'NONE', ( #198, #181 ) ) ;
#186 = DIRECTION ( 'NONE',  ( 0.000000000000000000, 0.000000000000000000, 1.000000000000000000 ) ) ;
#187 = DIRECTION ( 'NONE',  ( 1.000000000000000000, 0.000000000000000000, 0.000000000000000000 ) ) ;
#188 = DIRECTION ( 'NONE',  ( 1.000000000000000000, 0.000000000000000000, 0.000000000000000000 ) ) ;
#189 = CARTESIAN_POINT ( 'NONE',  ( 0.000000000000000000, 0.000000000000000000, 245.0000000000000000 ) ) ;
#190 = CIRCLE ( 'NONE', #243, 1.100000000000000089 ) ;
#191 = DIRECTION ( 'NONE',  ( 1.000000000000000000, 0.000000000000000000, 0.000000000000000000 ) ) ;
#192 = DIRECTION ( 'NONE',  ( 1.000000000000000000, 0.000000000000000000, 0.000000000000000000 ) ) ;
#193 = PERSON_AND_ORGANIZATION_ROLE ( 'creator' ) ;
#194 = DATE_AND_TIME ( #221, #80 ) ;
#195 = EDGE_CURVE ( 'NONE', #219, #47, #88, .T. ) ;
#196 = DATE_TIME_ROLE ( 'classification_date' ) ;
#197 = COORDINATED_UNIVERSAL_TIME_OFFSET ( 1, 0, .AHEAD. ) ;
#198 = ORIENTED_EDGE ( 'NONE', *, *, #57, .F. ) ;
#199 = EDGE_CURVE ( 'NONE', #37, #28, #5, .T. ) ;
#200 = VECTOR ( 'NONE', #91, 1000.000000000000000 ) ;
#201 = CC_DESIGN_APPROVAL ( #74, ( #106 ) ) ;
#202 = CARTESIAN_POINT ( 'NONE',  ( 2.000000000000000000, 2.449293598294706414E-16, 0.000000000000000000 ) ) ;
#203 = DIRECTION ( 'NONE',  ( -0.000000000000000000, -0.000000000000000000, -1.000000000000000000 ) ) ;
#204 = CARTESIAN_POINT ( 'NONE',  ( 0.000000000000000000, 0.000000000000000000, 0.000000000000000000 ) ) ;
#205 = CIRCLE ( 'NONE', #239, 1.100000000000000089 ) ;
#206 = CC_DESIGN_SECURITY_CLASSIFICATION ( #106, ( #39 ) ) ;
#207 = DIRECTION ( 'NONE',  ( 1.000000000000000000, 0.000000000000000000, 0.000000000000000000 ) ) ;
#208 = DIRECTION ( 'NONE',  ( -1.000000000000000000, 0.000000000000000000, 0.000000000000000000 ) ) ;
#209 = DIRECTION ( 'NONE',  ( 1.000000000000000000, 0.000000000000000000, 0.000000000000000000 ) ) ;
#210 = FACE_OUTER_BOUND ( 'NONE', #7, .T. ) ;
#211 = CIRCLE ( 'NONE', #18, 2.000000000000000000 ) ;
#212 = PERSON_AND_ORGANIZATION ( #76, #165 ) ;
#213 = DATE_TIME_ROLE ( 'creation_date' ) ;
#214 = EDGE_LOOP ( 'NONE', ( #238, #44 ) ) ;
#215 = COORDINATED_UNIVERSAL_TIME_OFFSET ( 1, 0, .AHEAD. ) ;
#216 = LOCAL_TIME ( 8, 40, 13.00000000000000000, #217 ) ;
#217 = COORDINATED_UNIVERSAL_TIME_OFFSET ( 1, 0, .AHEAD. ) ;
#218 = SECURITY_CLASSIFICATION_LEVEL ( 'unclassified' ) ;
#219 = VERTEX_POINT ( 'NONE', #231 ) ;
#220 = ADVANCED_FACE ( 'NONE', ( #159 ), #113, .T. ) ;
#221 = CALENDAR_DATE ( 2023, 10, 3 ) ;
#222 = ORIENTED_EDGE ( 'NONE', *, *, #255, .T. ) ;
#223 = AXIS2_PLACEMENT_3D ( 'NONE', #89, #186, #207 ) ;
#224 = PLANE ( 'NONE',  #236 ) ;
#225 = CARTESIAN_POINT ( 'NONE',  ( 0.000000000000000000, 0.000000000000000000, 245.0000000000000000 ) ) ;
#226 = ADVANCED_FACE ( 'NONE', ( #210 ), #93, .T. ) ;
#227 = ORIENTED_EDGE ( 'NONE', *, *, #12, .F. ) ;
#228 = FACE_OUTER_BOUND ( 'NONE', #100, .T. ) ;
#229 = CIRCLE ( 'NONE', #130, 1.100000000000000089 ) ;
#230 = DIRECTION ( 'NONE',  ( 1.000000000000000000, 0.000000000000000000, -0.000000000000000000 ) ) ;
#231 = CARTESIAN_POINT ( 'NONE',  ( -1.100000000000000089, 0.000000000000000000, 2.000000000000000000 ) ) ;
#232 = AXIS2_PLACEMENT_3D ( 'NONE', #15, #78, #137 ) ;
#233 = DIRECTION ( 'NONE',  ( 0.000000000000000000, 0.000000000000000000, 1.000000000000000000 ) ) ;
#234 =( NAMED_UNIT ( * ) PLANE_ANGLE_UNIT ( ) SI_UNIT ( $, .RADIAN. ) );
#235 =( LENGTH_UNIT ( ) NAMED_UNIT ( * ) SI_UNIT ( .MILLI., .METRE. ) );
#236 = AXIS2_PLACEMENT_3D ( 'NONE', #189, #112, #254 ) ;
#237 = ORIENTED_EDGE ( 'NONE', *, *, #94, .F. ) ;
#238 = ORIENTED_EDGE ( 'NONE', *, *, #94, .T. ) ;
#239 = AXIS2_PLACEMENT_3D ( 'NONE', #225, #131, #171 ) ;
#240 = DATE_AND_TIME ( #40, #216 ) ;
#241 = VERTEX_POINT ( 'NONE', #17 ) ;
#242 = DIRECTION ( 'NONE',  ( 0.000000000000000000, 0.000000000000000000, 1.000000000000000000 ) ) ;
#243 = AXIS2_PLACEMENT_3D ( 'NONE', #134, #52, #191 ) ;
#244 = LINE ( 'NONE', #11, #1 ) ;
#245 = EDGE_CURVE ( 'NONE', #172, #107, #190, .T. ) ;
#246 = DIRECTION ( 'NONE',  ( -0.000000000000000000, -0.000000000000000000, -1.000000000000000000 ) ) ;
#247 = CARTESIAN_POINT ( 'NONE',  ( -1.100000000000000089, 0.000000000000000000, 245.0000000000000000 ) ) ;
#248 = CYLINDRICAL_SURFACE ( 'NONE', #4, 1.100000000000000089 ) ;
#249 = AXIS2_PLACEMENT_3D ( 'NONE', #109, #69, #187 ) ;
#250 = AXIS2_PLACEMENT_3D ( 'NONE', #55, #34, #115 ) ;
#251 = APPROVAL_STATUS ( 'not_yet_approved' ) ;
#252 = DIRECTION ( 'NONE',  ( 0.000000000000000000, 0.000000000000000000, 1.000000000000000000 ) ) ;
#253 = APPLICATION_PROTOCOL_DEFINITION ( 'international standard', 'config_control_design', 1994, #157 ) ;
#254 = DIRECTION ( 'NONE',  ( 1.000000000000000000, 0.000000000000000000, -0.000000000000000000 ) ) ;
#255 = EDGE_CURVE ( 'NONE', #241, #28, #77, .T. ) ;
ENDSEC;
END-ISO-10303-21;
