ISO-10303-21;
HEADER;
FILE_DESCRIPTION (( 'STEP AP203' ),
    '1' );
FILE_NAME ('1e3a.STEP',
    '2023-02-12T10:36:44',
    ( '' ),
    ( '' ),
    'SwSTEP 2.0',
    'SolidWorks 2019',
    '' );
FILE_SCHEMA (( 'CONFIG_CONTROL_DESIGN' ));
ENDSEC;

DATA;
#1 = DIRECTION ( 'NONE',  ( 1.000000000000000000, 0.000000000000000000, 0.000000000000000000 ) ) ;
#2 = APPLICATION_CONTEXT ( 'configuration controlled 3d designs of mechanical parts and assemblies' ) ;
#3 = DIRECTION ( 'NONE',  ( 0.000000000000000000, 0.000000000000000000, 1.000000000000000000 ) ) ;
#4 = EDGE_CURVE ( 'NONE', #114, #204, #225, .T. ) ;
#5 = DIRECTION ( 'NONE',  ( -0.000000000000000000, -0.000000000000000000, -1.000000000000000000 ) ) ;
#6 = PERSON ( 'NEURÈENÝ', 'NEURÈENÝ', 'NEURÈENÝ', ('NEURÈENÝ'), ('NEURÈENÝ'), ('NEURÈENÝ') ) ;
#7 = VECTOR ( 'NONE', #69, 1000.000000000000000 ) ;
#8 = CARTESIAN_POINT ( 'NONE',  ( 0.000000000000000000, 0.000000000000000000, 0.000000000000000000 ) ) ;
#9 = COORDINATED_UNIVERSAL_TIME_OFFSET ( 1, 0, .AHEAD. ) ;
#10 = ORIENTED_EDGE ( 'NONE', *, *, #216, .T. ) ;
#11 = ORIENTED_EDGE ( 'NONE', *, *, #26, .F. ) ;
#12 = CARTESIAN_POINT ( 'NONE',  ( 0.000000000000000000, 0.000000000000000000, 125.0000000000000000 ) ) ;
#13 = ORIENTED_EDGE ( 'NONE', *, *, #74, .T. ) ;
#14 = PRODUCT_DEFINITION_SHAPE ( 'NONE', 'NONE',  #35 ) ;
#15 = CARTESIAN_POINT ( 'NONE',  ( 0.000000000000000000, 0.000000000000000000, 8.000000000000000000 ) ) ;
#16 = AXIS2_PLACEMENT_3D ( 'NONE', #34, #191, #115 ) ;
#17 = CIRCLE ( 'NONE', #224, 13.00000000000000178 ) ;
#18 = DIRECTION ( 'NONE',  ( 0.000000000000000000, 0.000000000000000000, 1.000000000000000000 ) ) ;
#19 = CARTESIAN_POINT ( 'NONE',  ( 0.000000000000000000, 0.000000000000000000, 0.000000000000000000 ) ) ;
#20 = CARTESIAN_POINT ( 'NONE',  ( 0.000000000000000000, 0.000000000000000000, 125.0000000000000000 ) ) ;
#21 = CC_DESIGN_PERSON_AND_ORGANIZATION_ASSIGNMENT ( #185, #23, ( #219 ) ) ;
#22 = CC_DESIGN_APPROVAL ( #110, ( #219 ) ) ;
#23 = PERSON_AND_ORGANIZATION_ROLE ( 'design_supplier' ) ;
#24 = DATE_AND_TIME ( #152, #199 ) ;
#25 = PERSON_AND_ORGANIZATION ( #6, #230 ) ;
#26 = EDGE_CURVE ( 'NONE', #203, #111, #46, .T. ) ;
#27 = COORDINATED_UNIVERSAL_TIME_OFFSET ( 1, 0, .AHEAD. ) ;
#28 = CIRCLE ( 'NONE', #130, 10.00000000000000178 ) ;
#29 = ADVANCED_FACE ( 'NONE', ( #112 ), #97, .T. ) ;
#30 = EDGE_LOOP ( 'NONE', ( #147, #249 ) ) ;
#31 = CARTESIAN_POINT ( 'NONE',  ( 10.00000000000000178, 1.224646799147353454E-15, 125.0000000000000000 ) ) ;
#32 = ORIENTED_EDGE ( 'NONE', *, *, #206, .T. ) ;
#33 = ORIENTED_EDGE ( 'NONE', *, *, #87, .T. ) ;
#34 = CARTESIAN_POINT ( 'NONE',  ( 0.000000000000000000, 0.000000000000000000, 8.000000000000000000 ) ) ;
#35 = PRODUCT_DEFINITION ( 'NEZNÁMÝ', '', #219, #75 ) ;
#36 = CARTESIAN_POINT ( 'NONE',  ( 0.000000000000000000, 0.000000000000000000, 125.0000000000000000 ) ) ;
#37 = CYLINDRICAL_SURFACE ( 'NONE', #82, 10.00000000000000178 ) ;
#38 =( NAMED_UNIT ( * ) SI_UNIT ( $, .STERADIAN. ) SOLID_ANGLE_UNIT ( ) );
#39 = EDGE_CURVE ( 'NONE', #172, #85, #201, .T. ) ;
#40 = CARTESIAN_POINT ( 'NONE',  ( 0.000000000000000000, 0.000000000000000000, 8.000000000000000000 ) ) ;
#41 = DIRECTION ( 'NONE',  ( 1.000000000000000000, 0.000000000000000000, 0.000000000000000000 ) ) ;
#42 = EDGE_LOOP ( 'NONE', ( #205, #48 ) ) ;
#43 = DATE_TIME_ROLE ( 'classification_date' ) ;
#44 = PERSON_AND_ORGANIZATION_ROLE ( 'design_owner' ) ;
#45 = EDGE_CURVE ( 'NONE', #85, #204, #250, .T. ) ;
#46 = LINE ( 'NONE', #31, #237 ) ;
#47 = ORIENTED_EDGE ( 'NONE', *, *, #246, .F. ) ;
#48 = ORIENTED_EDGE ( 'NONE', *, *, #45, .F. ) ;
#49 = DIRECTION ( 'NONE',  ( 1.000000000000000000, 0.000000000000000000, 0.000000000000000000 ) ) ;
#50 = CARTESIAN_POINT ( 'NONE',  ( 13.00000000000000178, 1.592040838891559293E-15, 0.000000000000000000 ) ) ;
#51 =( NAMED_UNIT ( * ) PLANE_ANGLE_UNIT ( ) SI_UNIT ( $, .RADIAN. ) );
#52 = CC_DESIGN_DATE_AND_TIME_ASSIGNMENT ( #124, #64, ( #35 ) ) ;
#53 = FACE_OUTER_BOUND ( 'NONE', #133, .T. ) ;
#54 = CARTESIAN_POINT ( 'NONE',  ( 0.000000000000000000, 0.000000000000000000, 125.0000000000000000 ) ) ;
#55 = CC_DESIGN_PERSON_AND_ORGANIZATION_ASSIGNMENT ( #214, #91, ( #35 ) ) ;
#56 = DIRECTION ( 'NONE',  ( 1.000000000000000000, 0.000000000000000000, 0.000000000000000000 ) ) ;
#57 = DIRECTION ( 'NONE',  ( -1.000000000000000000, 0.000000000000000000, 0.000000000000000000 ) ) ;
#58 = APPROVAL_PERSON_ORGANIZATION ( #83, #161, #220 ) ;
#59 = APPLICATION_PROTOCOL_DEFINITION ( 'international standard', 'config_control_design', 1994, #2 ) ;
#60 = DIRECTION ( 'NONE',  ( 0.000000000000000000, 0.000000000000000000, 1.000000000000000000 ) ) ;
#61 = CC_DESIGN_PERSON_AND_ORGANIZATION_ASSIGNMENT ( #25, #122, ( #219 ) ) ;
#62 = VECTOR ( 'NONE', #154, 1000.000000000000000 ) ;
#63 = APPROVAL_PERSON_ORGANIZATION ( #150, #110, #195 ) ;
#64 = DATE_TIME_ROLE ( 'creation_date' ) ;
#65 = CALENDAR_DATE ( 2023, 12, 2 ) ;
#66 = CC_DESIGN_PERSON_AND_ORGANIZATION_ASSIGNMENT ( #243, #44, ( #248 ) ) ;
#67 = DIRECTION ( 'NONE',  ( -0.000000000000000000, -0.000000000000000000, -1.000000000000000000 ) ) ;
#68 = AXIS2_PLACEMENT_3D ( 'NONE', #54, #18, #103 ) ;
#69 = DIRECTION ( 'NONE',  ( -0.000000000000000000, -0.000000000000000000, -1.000000000000000000 ) ) ;
#70 = ORIENTED_EDGE ( 'NONE', *, *, #45, .T. ) ;
#71 = APPROVAL_PERSON_ORGANIZATION ( #125, #212, #120 ) ;
#72 = CARTESIAN_POINT ( 'NONE',  ( 0.000000000000000000, 0.000000000000000000, 8.000000000000000000 ) ) ;
#73 = DIRECTION ( 'NONE',  ( -1.000000000000000000, 0.000000000000000000, 0.000000000000000000 ) ) ;
#74 = EDGE_CURVE ( 'NONE', #232, #244, #137, .T. ) ;
#75 = DESIGN_CONTEXT ( 'detailed design', #178, 'design' ) ;
#76 = DIRECTION ( 'NONE',  ( 0.000000000000000000, 0.000000000000000000, 1.000000000000000000 ) ) ;
#77 = AXIS2_PLACEMENT_3D ( 'NONE', #155, #190, #49 ) ;
#78 = LOCAL_TIME ( 11, 36, 44.00000000000000000, #9 ) ;
#79 = DIRECTION ( 'NONE',  ( -1.000000000000000000, 0.000000000000000000, 0.000000000000000000 ) ) ;
#80 = FACE_OUTER_BOUND ( 'NONE', #42, .T. ) ;
#81 = CARTESIAN_POINT ( 'NONE',  ( -10.00000000000000178, 0.000000000000000000, 8.000000000000000000 ) ) ;
#82 = AXIS2_PLACEMENT_3D ( 'NONE', #180, #5, #73 ) ;
#83 = PERSON_AND_ORGANIZATION ( #6, #230 ) ;
#84 = SECURITY_CLASSIFICATION ( '', '', #221 ) ;
#85 = VERTEX_POINT ( 'NONE', #50 ) ;
#86 = APPROVAL_STATUS ( 'not_yet_approved' ) ;
#87 = EDGE_CURVE ( 'NONE', #111, #244, #134, .T. ) ;
#88 = CIRCLE ( 'NONE', #229, 10.00000000000000178 ) ;
#89 = APPROVAL_DATE_TIME ( #167, #110 ) ;
#90 = PRODUCT_RELATED_PRODUCT_CATEGORY ( 'detail', '', ( #248 ) ) ;
#91 = PERSON_AND_ORGANIZATION_ROLE ( 'creator' ) ;
#92 = EDGE_LOOP ( 'NONE', ( #11, #240, #13, #95 ) ) ;
#93 = EDGE_LOOP ( 'NONE', ( #47, #128, #70, #138 ) ) ;
#94 = ORIENTED_EDGE ( 'NONE', *, *, #216, .F. ) ;
#95 = ORIENTED_EDGE ( 'NONE', *, *, #121, .T. ) ;
#96 = AXIS2_PLACEMENT_3D ( 'NONE', #236, #163, #160 ) ;
#97 = CYLINDRICAL_SURFACE ( 'NONE', #211, 10.00000000000000178 ) ;
#98 = ADVANCED_FACE ( 'NONE', ( #135, #253 ), #200, .T. ) ;
#99 = FACE_OUTER_BOUND ( 'NONE', #93, .T. ) ;
#100 = CARTESIAN_POINT ( 'NONE',  ( -13.00000000000000178, 0.000000000000000000, 8.000000000000000000 ) ) ;
#101 = DIRECTION ( 'NONE',  ( 0.000000000000000000, 0.000000000000000000, 1.000000000000000000 ) ) ;
#102 = DIRECTION ( 'NONE',  ( -0.000000000000000000, -0.000000000000000000, -1.000000000000000000 ) ) ;
#103 = DIRECTION ( 'NONE',  ( 1.000000000000000000, 0.000000000000000000, -0.000000000000000000 ) ) ;
#104 = AXIS2_PLACEMENT_3D ( 'NONE', #8, #60, #41 ) ;
#105 = CALENDAR_DATE ( 2023, 12, 2 ) ;
#106 = SHAPE_DEFINITION_REPRESENTATION ( #14, #215 ) ;
#107 = AXIS2_PLACEMENT_3D ( 'NONE', #40, #210, #57 ) ;
#108 = MANIFOLD_SOLID_BREP ( 'Pøidat vysunutím3', #171 ) ;
#109 = ORIENTED_EDGE ( 'NONE', *, *, #181, .T. ) ;
#110 = APPROVAL ( #197, 'NEURÈENÝ' ) ;
#111 = VERTEX_POINT ( 'NONE', #159 ) ;
#112 = FACE_OUTER_BOUND ( 'NONE', #170, .T. ) ;
#113 = CARTESIAN_POINT ( 'NONE',  ( -10.00000000000000178, 0.000000000000000000, 125.0000000000000000 ) ) ;
#114 = VERTEX_POINT ( 'NONE', #100 ) ;
#115 = DIRECTION ( 'NONE',  ( 1.000000000000000000, 0.000000000000000000, 0.000000000000000000 ) ) ;
#116 = DIRECTION ( 'NONE',  ( 0.000000000000000000, 0.000000000000000000, 1.000000000000000000 ) ) ;
#117 = DIRECTION ( 'NONE',  ( 1.000000000000000000, 0.000000000000000000, 0.000000000000000000 ) ) ;
#118 = CIRCLE ( 'NONE', #129, 13.00000000000000178 ) ;
#119 = LOCAL_TIME ( 11, 36, 44.00000000000000000, #146 ) ;
#120 = APPROVAL_ROLE ( '' ) ;
#121 = EDGE_CURVE ( 'NONE', #244, #111, #88, .T. ) ;
#122 = PERSON_AND_ORGANIZATION_ROLE ( 'creator' ) ;
#123 = CC_DESIGN_SECURITY_CLASSIFICATION ( #84, ( #219 ) ) ;
#124 = DATE_AND_TIME ( #65, #187 ) ;
#125 = PERSON_AND_ORGANIZATION ( #6, #230 ) ;
#126 = ORIENTED_EDGE ( 'NONE', *, *, #246, .T. ) ;
#127 = COORDINATED_UNIVERSAL_TIME_OFFSET ( 1, 0, .AHEAD. ) ;
#128 = ORIENTED_EDGE ( 'NONE', *, *, #39, .T. ) ;
#129 = AXIS2_PLACEMENT_3D ( 'NONE', #19, #207, #56 ) ;
#130 = AXIS2_PLACEMENT_3D ( 'NONE', #20, #101, #179 ) ;
#131 = DIRECTION ( 'NONE',  ( 1.000000000000000000, 0.000000000000000000, 0.000000000000000000 ) ) ;
#132 = ADVANCED_FACE ( 'NONE', ( #80 ), #235, .F. ) ;
#133 = EDGE_LOOP ( 'NONE', ( #32, #10 ) ) ;
#134 = CIRCLE ( 'NONE', #217, 10.00000000000000178 ) ;
#135 = FACE_BOUND ( 'NONE', #30, .T. ) ;
#136 =( GEOMETRIC_REPRESENTATION_CONTEXT ( 3 ) GLOBAL_UNCERTAINTY_ASSIGNED_CONTEXT ( ( #254 ) ) GLOBAL_UNIT_ASSIGNED_CONTEXT ( ( #255, #51, #38 ) ) REPRESENTATION_CONTEXT ( 'NONE', 'WORKASPACE' ) );
#137 = LINE ( 'NONE', #113, #143 ) ;
#138 = ORIENTED_EDGE ( 'NONE', *, *, #4, .F. ) ;
#139 = CYLINDRICAL_SURFACE ( 'NONE', #107, 13.00000000000000178 ) ;
#140 = PLANE ( 'NONE',  #68 ) ;
#141 = CARTESIAN_POINT ( 'NONE',  ( -13.00000000000000178, 0.000000000000000000, 0.000000000000000000 ) ) ;
#142 = CARTESIAN_POINT ( 'NONE',  ( 13.00000000000000178, 1.592040838891559293E-15, 8.000000000000000000 ) ) ;
#143 = VECTOR ( 'NONE', #228, 1000.000000000000000 ) ;
#144 = AXIS2_PLACEMENT_3D ( 'NONE', #36, #116, #192 ) ;
#145 = DIRECTION ( 'NONE',  ( 1.000000000000000000, 0.000000000000000000, -0.000000000000000000 ) ) ;
#146 = COORDINATED_UNIVERSAL_TIME_OFFSET ( 1, 0, .AHEAD. ) ;
#147 = ORIENTED_EDGE ( 'NONE', *, *, #121, .F. ) ;
#148 = MECHANICAL_CONTEXT ( 'NONE', #2, 'mechanical' ) ;
#149 = AXIS2_PLACEMENT_3D ( 'NONE', #72, #158, #145 ) ;
#150 = PERSON_AND_ORGANIZATION ( #6, #230 ) ;
#151 = COORDINATED_UNIVERSAL_TIME_OFFSET ( 1, 0, .AHEAD. ) ;
#152 = CALENDAR_DATE ( 2023, 12, 2 ) ;
#153 = DIRECTION ( 'NONE',  ( 0.000000000000000000, 0.000000000000000000, 1.000000000000000000 ) ) ;
#154 = DIRECTION ( 'NONE',  ( -0.000000000000000000, -0.000000000000000000, -1.000000000000000000 ) ) ;
#155 = CARTESIAN_POINT ( 'NONE',  ( 0.000000000000000000, 0.000000000000000000, 0.000000000000000000 ) ) ;
#156 = CIRCLE ( 'NONE', #16, 13.00000000000000178 ) ;
#157 = ORIENTED_EDGE ( 'NONE', *, *, #74, .F. ) ;
#158 = DIRECTION ( 'NONE',  ( 0.000000000000000000, 0.000000000000000000, 1.000000000000000000 ) ) ;
#159 = CARTESIAN_POINT ( 'NONE',  ( 10.00000000000000178, 1.224646799147353454E-15, 8.000000000000000000 ) ) ;
#160 = DIRECTION ( 'NONE',  ( 1.000000000000000000, 0.000000000000000000, -0.000000000000000000 ) ) ;
#161 = APPROVAL ( #86, 'NEURÈENÝ' ) ;
#162 = CC_DESIGN_APPROVAL ( #161, ( #35 ) ) ;
#163 = DIRECTION ( 'NONE',  ( 0.000000000000000000, 0.000000000000000000, 1.000000000000000000 ) ) ;
#164 = CARTESIAN_POINT ( 'NONE',  ( -10.00000000000000178, 0.000000000000000000, 125.0000000000000000 ) ) ;
#165 = DATE_AND_TIME ( #241, #78 ) ;
#166 = ORIENTED_EDGE ( 'NONE', *, *, #26, .T. ) ;
#167 = DATE_AND_TIME ( #242, #119 ) ;
#168 = EDGE_CURVE ( 'NONE', #204, #85, #118, .T. ) ;
#169 = APPLICATION_PROTOCOL_DEFINITION ( 'international standard', 'config_control_design', 1994, #178 ) ;
#170 = EDGE_LOOP ( 'NONE', ( #94, #166, #33, #157 ) ) ;
#171 = CLOSED_SHELL ( 'NONE', ( #29, #184, #196, #98, #132, #222, #202 ) ) ;
#172 = VERTEX_POINT ( 'NONE', #142 ) ;
#173 = EDGE_LOOP ( 'NONE', ( #189, #188, #175, #174 ) ) ;
#174 = ORIENTED_EDGE ( 'NONE', *, *, #168, .T. ) ;
#175 = ORIENTED_EDGE ( 'NONE', *, *, #4, .T. ) ;
#176 = FACE_OUTER_BOUND ( 'NONE', #92, .T. ) ;
#177 = CARTESIAN_POINT ( 'NONE',  ( 0.000000000000000000, 0.000000000000000000, 8.000000000000000000 ) ) ;
#178 = APPLICATION_CONTEXT ( 'configuration controlled 3d designs of mechanical parts and assemblies' ) ;
#179 = DIRECTION ( 'NONE',  ( 1.000000000000000000, 0.000000000000000000, 0.000000000000000000 ) ) ;
#180 = CARTESIAN_POINT ( 'NONE',  ( 0.000000000000000000, 0.000000000000000000, 125.0000000000000000 ) ) ;
#181 = EDGE_CURVE ( 'NONE', #114, #172, #156, .T. ) ;
#182 = APPROVAL_DATE_TIME ( #183, #212 ) ;
#183 = DATE_AND_TIME ( #105, #234 ) ;
#184 = ADVANCED_FACE ( 'NONE', ( #99 ), #209, .T. ) ;
#185 = PERSON_AND_ORGANIZATION ( #6, #230 ) ;
#186 = DIRECTION ( 'NONE',  ( -1.000000000000000000, 0.000000000000000000, 0.000000000000000000 ) ) ;
#187 = LOCAL_TIME ( 11, 36, 44.00000000000000000, #151 ) ;
#188 = ORIENTED_EDGE ( 'NONE', *, *, #181, .F. ) ;
#189 = ORIENTED_EDGE ( 'NONE', *, *, #39, .F. ) ;
#190 = DIRECTION ( 'NONE',  ( 0.000000000000000000, 0.000000000000000000, 1.000000000000000000 ) ) ;
#191 = DIRECTION ( 'NONE',  ( 0.000000000000000000, 0.000000000000000000, 1.000000000000000000 ) ) ;
#192 = DIRECTION ( 'NONE',  ( 1.000000000000000000, 0.000000000000000000, 0.000000000000000000 ) ) ;
#193 = CARTESIAN_POINT ( 'NONE',  ( 0.000000000000000000, 0.000000000000000000, 8.000000000000000000 ) ) ;
#194 = PERSON_AND_ORGANIZATION ( #6, #230 ) ;
#195 = APPROVAL_ROLE ( '' ) ;
#196 = ADVANCED_FACE ( 'NONE', ( #233 ), #139, .T. ) ;
#197 = APPROVAL_STATUS ( 'not_yet_approved' ) ;
#198 = PERSON_AND_ORGANIZATION_ROLE ( 'classification_officer' ) ;
#199 = LOCAL_TIME ( 11, 36, 44.00000000000000000, #127 ) ;
#200 = PLANE ( 'NONE',  #149 ) ;
#201 = LINE ( 'NONE', #247, #7 ) ;
#202 = ADVANCED_FACE ( 'NONE', ( #53 ), #140, .T. ) ;
#203 = VERTEX_POINT ( 'NONE', #238 ) ;
#204 = VERTEX_POINT ( 'NONE', #141 ) ;
#205 = ORIENTED_EDGE ( 'NONE', *, *, #168, .F. ) ;
#206 = EDGE_CURVE ( 'NONE', #232, #203, #252, .T. ) ;
#207 = DIRECTION ( 'NONE',  ( 0.000000000000000000, 0.000000000000000000, 1.000000000000000000 ) ) ;
#208 = AXIS2_PLACEMENT_3D ( 'NONE', #213, #102, #79 ) ;
#209 = CYLINDRICAL_SURFACE ( 'NONE', #208, 13.00000000000000178 ) ;
#210 = DIRECTION ( 'NONE',  ( -0.000000000000000000, -0.000000000000000000, -1.000000000000000000 ) ) ;
#211 = AXIS2_PLACEMENT_3D ( 'NONE', #12, #231, #186 ) ;
#212 = APPROVAL ( #223, 'NEURÈENÝ' ) ;
#213 = CARTESIAN_POINT ( 'NONE',  ( 0.000000000000000000, 0.000000000000000000, 8.000000000000000000 ) ) ;
#214 = PERSON_AND_ORGANIZATION ( #6, #230 ) ;
#215 = ADVANCED_BREP_SHAPE_REPRESENTATION ( '1e3a', ( #108, #104 ), #136 ) ;
#216 = EDGE_CURVE ( 'NONE', #203, #232, #28, .T. ) ;
#217 = AXIS2_PLACEMENT_3D ( 'NONE', #15, #153, #131 ) ;
#218 = APPROVAL_DATE_TIME ( #165, #161 ) ;
#219 = PRODUCT_DEFINITION_FORMATION_WITH_SPECIFIED_SOURCE ( 'LIBOVOLNÝ', '', #248, .NOT_KNOWN. ) ;
#220 = APPROVAL_ROLE ( '' ) ;
#221 = SECURITY_CLASSIFICATION_LEVEL ( 'unclassified' ) ;
#222 = ADVANCED_FACE ( 'NONE', ( #176 ), #37, .T. ) ;
#223 = APPROVAL_STATUS ( 'not_yet_approved' ) ;
#224 = AXIS2_PLACEMENT_3D ( 'NONE', #193, #3, #117 ) ;
#225 = LINE ( 'NONE', #226, #62 ) ;
#226 = CARTESIAN_POINT ( 'NONE',  ( -13.00000000000000178, 0.000000000000000000, 8.000000000000000000 ) ) ;
#227 = CC_DESIGN_PERSON_AND_ORGANIZATION_ASSIGNMENT ( #194, #198, ( #84 ) ) ;
#228 = DIRECTION ( 'NONE',  ( -0.000000000000000000, -0.000000000000000000, -1.000000000000000000 ) ) ;
#229 = AXIS2_PLACEMENT_3D ( 'NONE', #177, #76, #1 ) ;
#230 = ORGANIZATION ( 'NEURÈENÝ', 'NEURÈENÝ', '' ) ;
#231 = DIRECTION ( 'NONE',  ( -0.000000000000000000, -0.000000000000000000, -1.000000000000000000 ) ) ;
#232 = VERTEX_POINT ( 'NONE', #164 ) ;
#233 = FACE_OUTER_BOUND ( 'NONE', #173, .T. ) ;
#234 = LOCAL_TIME ( 11, 36, 44.00000000000000000, #27 ) ;
#235 = PLANE ( 'NONE',  #96 ) ;
#236 = CARTESIAN_POINT ( 'NONE',  ( 0.000000000000000000, 0.000000000000000000, 0.000000000000000000 ) ) ;
#237 = VECTOR ( 'NONE', #67, 1000.000000000000000 ) ;
#238 = CARTESIAN_POINT ( 'NONE',  ( 10.00000000000000178, 1.224646799147353454E-15, 125.0000000000000000 ) ) ;
#239 = CC_DESIGN_APPROVAL ( #212, ( #84 ) ) ;
#240 = ORIENTED_EDGE ( 'NONE', *, *, #206, .F. ) ;
#241 = CALENDAR_DATE ( 2023, 12, 2 ) ;
#242 = CALENDAR_DATE ( 2023, 12, 2 ) ;
#243 = PERSON_AND_ORGANIZATION ( #6, #230 ) ;
#244 = VERTEX_POINT ( 'NONE', #81 ) ;
#245 = EDGE_LOOP ( 'NONE', ( #109, #126 ) ) ;
#246 = EDGE_CURVE ( 'NONE', #172, #114, #17, .T. ) ;
#247 = CARTESIAN_POINT ( 'NONE',  ( 13.00000000000000178, 1.592040838891559293E-15, 8.000000000000000000 ) ) ;
#248 = PRODUCT ( '1e3a', '1e3a', '', ( #148 ) ) ;
#249 = ORIENTED_EDGE ( 'NONE', *, *, #87, .F. ) ;
#250 = CIRCLE ( 'NONE', #77, 13.00000000000000178 ) ;
#251 = CC_DESIGN_DATE_AND_TIME_ASSIGNMENT ( #24, #43, ( #84 ) ) ;
#252 = CIRCLE ( 'NONE', #144, 10.00000000000000178 ) ;
#253 = FACE_OUTER_BOUND ( 'NONE', #245, .T. ) ;
#254 = UNCERTAINTY_MEASURE_WITH_UNIT (LENGTH_MEASURE( 1.000000000000000082E-05 ), #255, 'distance_accuracy_value', 'NONE');
#255 =( LENGTH_UNIT ( ) NAMED_UNIT ( * ) SI_UNIT ( .MILLI., .METRE. ) );
ENDSEC;
END-ISO-10303-21;
