ISO-10303-21;
HEADER;
FILE_DESCRIPTION (( 'STEP AP203' ),
    '1' );
FILE_NAME ('3b1a.STEP',
    '2022-07-07T12:27:54',
    ( '' ),
    ( '' ),
    'SwSTEP 2.0',
    'SolidWorks 2019',
    '' );
FILE_SCHEMA (( 'CONFIG_CONTROL_DESIGN' ));
ENDSEC;

DATA;
#1 = EDGE_CURVE ( 'NONE', #48, #73, #202, .T. ) ;
#2 = AXIS2_PLACEMENT_3D ( 'NONE', #55, #102, #198 ) ;
#3 = CIRCLE ( 'NONE', #41, 5.200000000000000178 ) ;
#4 = ORIENTED_EDGE ( 'NONE', *, *, #1, .T. ) ;
#5 = DIRECTION ( 'NONE',  ( 0.000000000000000000, 0.000000000000000000, 1.000000000000000000 ) ) ;
#6 = PLANE ( 'NONE',  #2 ) ;
#7 = CARTESIAN_POINT ( 'NONE',  ( -5.200000000000000178, 6.368163355566236381E-16, 5.200000000000009948 ) ) ;
#8 = ADVANCED_FACE ( 'NONE', ( #244 ), #296, .F. ) ;
#9 = DIRECTION ( 'NONE',  ( 0.000000000000000000, 0.000000000000000000, 1.000000000000000000 ) ) ;
#10 = VERTEX_POINT ( 'NONE', #223 ) ;
#11 = FACE_OUTER_BOUND ( 'NONE', #124, .T. ) ;
#12 = ADVANCED_FACE ( 'NONE', ( #125 ), #206, .F. ) ;
#13 = CARTESIAN_POINT ( 'NONE',  ( 5.200000000000000178, 0.000000000000000000, 5.000000000000005329 ) ) ;
#14 = PERSON_AND_ORGANIZATION ( #59, #193 ) ;
#15 = CARTESIAN_POINT ( 'NONE',  ( -8.000000000000000000, 0.000000000000000000, 5.000000000000000000 ) ) ;
#16 = CIRCLE ( 'NONE', #227, 0.1999999999999996503 ) ;
#17 = CARTESIAN_POINT ( 'NONE',  ( 0.000000000000000000, 0.000000000000000000, 255.0000000000000000 ) ) ;
#18 = PERSON_AND_ORGANIZATION ( #59, #193 ) ;
#19 = EDGE_CURVE ( 'NONE', #48, #29, #207, .T. ) ;
#20 = DIRECTION ( 'NONE',  ( -0.000000000000000000, -0.000000000000000000, -1.000000000000000000 ) ) ;
#21 = APPROVAL_DATE_TIME ( #91, #143 ) ;
#22 = PERSON_AND_ORGANIZATION ( #59, #193 ) ;
#23 = ORIENTED_EDGE ( 'NONE', *, *, #24, .F. ) ;
#24 = EDGE_CURVE ( 'NONE', #194, #284, #109, .T. ) ;
#25 = ORIENTED_EDGE ( 'NONE', *, *, #51, .F. ) ;
#26 = CIRCLE ( 'NONE', #85, 0.1999999999999996503 ) ;
#27 = ORIENTED_EDGE ( 'NONE', *, *, #71, .T. ) ;
#28 = AXIS2_PLACEMENT_3D ( 'NONE', #36, #110, #135 ) ;
#29 = VERTEX_POINT ( 'NONE', #56 ) ;
#30 = AXIS2_PLACEMENT_3D ( 'NONE', #168, #267, #219 ) ;
#31 = DIRECTION ( 'NONE',  ( 0.000000000000000000, 0.000000000000000000, 1.000000000000000000 ) ) ;
#32 = CARTESIAN_POINT ( 'NONE',  ( 0.000000000000000000, 0.000000000000000000, 5.200000000000009948 ) ) ;
#33 = CARTESIAN_POINT ( 'NONE',  ( 0.000000000000000000, 0.000000000000000000, 0.000000000000000000 ) ) ;
#34 = EDGE_LOOP ( 'NONE', ( #107, #292, #263, #52 ) ) ;
#35 = CC_DESIGN_DATE_AND_TIME_ASSIGNMENT ( #161, #39, ( #92 ) ) ;
#36 = CARTESIAN_POINT ( 'NONE',  ( 0.000000000000000000, 0.000000000000000000, 5.000000000000000000 ) ) ;
#37 = CYLINDRICAL_SURFACE ( 'NONE', #64, 5.000000000000000000 ) ;
#38 = APPROVAL_ROLE ( '' ) ;
#39 = DATE_TIME_ROLE ( 'creation_date' ) ;
#40 = CARTESIAN_POINT ( 'NONE',  ( 5.000000000000000000, 6.123233995736766282E-16, 5.200000000000009948 ) ) ;
#41 = AXIS2_PLACEMENT_3D ( 'NONE', #208, #229, #280 ) ;
#42 = CC_DESIGN_PERSON_AND_ORGANIZATION_ASSIGNMENT ( #230, #179, ( #293 ) ) ;
#43 = PERSON_AND_ORGANIZATION ( #59, #193 ) ;
#44 = CIRCLE ( 'NONE', #220, 5.200000000000000178 ) ;
#45 = EDGE_LOOP ( 'NONE', ( #262, #266, #98, #162 ) ) ;
#46 = CIRCLE ( 'NONE', #79, 5.000000000000000000 ) ;
#47 = ORIENTED_EDGE ( 'NONE', *, *, #19, .F. ) ;
#48 = VERTEX_POINT ( 'NONE', #218 ) ;
#49 = APPLICATION_CONTEXT ( 'configuration controlled 3d designs of mechanical parts and assemblies' ) ;
#50 = CIRCLE ( 'NONE', #133, 5.000000000000000000 ) ;
#51 = EDGE_CURVE ( 'NONE', #95, #10, #146, .T. ) ;
#52 = ORIENTED_EDGE ( 'NONE', *, *, #291, .F. ) ;
#53 = AXIS2_PLACEMENT_3D ( 'NONE', #89, #231, #57 ) ;
#54 = AXIS2_PLACEMENT_3D ( 'NONE', #62, #258, #116 ) ;
#55 = CARTESIAN_POINT ( 'NONE',  ( 0.000000000000000000, 0.000000000000000000, 0.000000000000000000 ) ) ;
#56 = CARTESIAN_POINT ( 'NONE',  ( 5.000000000000000000, 6.123233995736766282E-16, 255.0000000000000000 ) ) ;
#57 = DIRECTION ( 'NONE',  ( 1.000000000000000000, 0.000000000000000000, 0.000000000000000000 ) ) ;
#58 = LINE ( 'NONE', #273, #271 ) ;
#59 = PERSON ( 'NEURÈENÝ', 'NEURÈENÝ', 'NEURÈENÝ', ('NEURÈENÝ'), ('NEURÈENÝ'), ('NEURÈENÝ') ) ;
#60 = APPROVAL_DATE_TIME ( #205, #153 ) ;
#61 = CARTESIAN_POINT ( 'NONE',  ( 8.000000000000000000, 9.797174393178825657E-16, 5.000000000000000000 ) ) ;
#62 = CARTESIAN_POINT ( 'NONE',  ( 0.000000000000000000, 0.000000000000000000, 255.0000000000000000 ) ) ;
#63 = DIRECTION ( 'NONE',  ( 1.000000000000000000, 0.000000000000000000, 0.000000000000000000 ) ) ;
#64 = AXIS2_PLACEMENT_3D ( 'NONE', #17, #156, #301 ) ;
#65 = PERSON_AND_ORGANIZATION_ROLE ( 'design_supplier' ) ;
#66 =( NAMED_UNIT ( * ) PLANE_ANGLE_UNIT ( ) SI_UNIT ( $, .RADIAN. ) );
#67 = PERSON_AND_ORGANIZATION_ROLE ( 'creator' ) ;
#68 = AXIS2_PLACEMENT_3D ( 'NONE', #105, #31, #173 ) ;
#69 = ORIENTED_EDGE ( 'NONE', *, *, #195, .T. ) ;
#70 = ORIENTED_EDGE ( 'NONE', *, *, #24, .T. ) ;
#71 = EDGE_CURVE ( 'NONE', #73, #142, #50, .T. ) ;
#72 = AXIS2_PLACEMENT_3D ( 'NONE', #172, #248, #269 ) ;
#73 = VERTEX_POINT ( 'NONE', #288 ) ;
#74 = CARTESIAN_POINT ( 'NONE',  ( 0.000000000000000000, 0.000000000000000000, 5.000000000000000000 ) ) ;
#75 = ADVANCED_FACE ( 'NONE', ( #171 ), #6, .F. ) ;
#76 = MANIFOLD_SOLID_BREP ( 'Zaoblit1', #84 ) ;
#77 = CYLINDRICAL_SURFACE ( 'NONE', #72, 8.000000000000000000 ) ;
#78 = EDGE_LOOP ( 'NONE', ( #239, #140, #268, #163 ) ) ;
#79 = AXIS2_PLACEMENT_3D ( 'NONE', #250, #154, #210 ) ;
#80 = ORIENTED_EDGE ( 'NONE', *, *, #225, .F. ) ;
#81 = ADVANCED_FACE ( 'NONE', ( #289 ), #77, .T. ) ;
#82 = DIRECTION ( 'NONE',  ( 0.000000000000000000, 0.000000000000000000, -1.000000000000000000 ) ) ;
#83 = CARTESIAN_POINT ( 'NONE',  ( -8.000000000000000000, 0.000000000000000000, 5.000000000000000000 ) ) ;
#84 = CLOSED_SHELL ( 'NONE', ( #12, #232, #81, #303, #265, #75, #149, #276, #8 ) ) ;
#85 = AXIS2_PLACEMENT_3D ( 'NONE', #7, #104, #290 ) ;
#86 = APPROVAL_ROLE ( '' ) ;
#87 = DIRECTION ( 'NONE',  ( 1.000000000000000000, 0.000000000000000000, -0.000000000000000000 ) ) ;
#88 = CALENDAR_DATE ( 2022, 7, 7 ) ;
#89 = CARTESIAN_POINT ( 'NONE',  ( 0.000000000000000000, 0.000000000000000000, 5.200000000000009948 ) ) ;
#90 = PLANE ( 'NONE',  #54 ) ;
#91 = DATE_AND_TIME ( #155, #242 ) ;
#92 = PRODUCT_DEFINITION ( 'NEZNÁMÝ', '', #287, #103 ) ;
#93 = DATE_AND_TIME ( #306, #169 ) ;
#94 = ORIENTED_EDGE ( 'NONE', *, *, #212, .T. ) ;
#95 = VERTEX_POINT ( 'NONE', #222 ) ;
#96 = EDGE_CURVE ( 'NONE', #73, #240, #26, .T. ) ;
#97 = ADVANCED_BREP_SHAPE_REPRESENTATION ( '3b1a', ( #76, #106 ), #101 ) ;
#98 = ORIENTED_EDGE ( 'NONE', *, *, #291, .T. ) ;
#99 = DIRECTION ( 'NONE',  ( 1.000000000000000000, 0.000000000000000000, 0.000000000000000000 ) ) ;
#100 = PRODUCT_RELATED_PRODUCT_CATEGORY ( 'detail', '', ( #293 ) ) ;
#101 =( GEOMETRIC_REPRESENTATION_CONTEXT ( 3 ) GLOBAL_UNCERTAINTY_ASSIGNED_CONTEXT ( ( #247 ) ) GLOBAL_UNIT_ASSIGNED_CONTEXT ( ( #188, #66, #281 ) ) REPRESENTATION_CONTEXT ( 'NONE', 'WORKASPACE' ) );
#102 = DIRECTION ( 'NONE',  ( 0.000000000000000000, 0.000000000000000000, 1.000000000000000000 ) ) ;
#103 = DESIGN_CONTEXT ( 'detailed design', #49, 'design' ) ;
#104 = DIRECTION ( 'NONE',  ( 1.224646799147353207E-16, 1.000000000000000000, -0.000000000000000000 ) ) ;
#105 = CARTESIAN_POINT ( 'NONE',  ( 0.000000000000000000, 0.000000000000000000, 255.0000000000000000 ) ) ;
#106 = AXIS2_PLACEMENT_3D ( 'NONE', #115, #139, #209 ) ;
#107 = ORIENTED_EDGE ( 'NONE', *, *, #71, .F. ) ;
#108 = DIRECTION ( 'NONE',  ( 0.000000000000000000, 0.000000000000000000, 1.000000000000000000 ) ) ;
#109 = CIRCLE ( 'NONE', #158, 8.000000000000000000 ) ;
#110 = DIRECTION ( 'NONE',  ( 0.000000000000000000, 0.000000000000000000, 1.000000000000000000 ) ) ;
#111 = APPROVAL_STATUS ( 'not_yet_approved' ) ;
#112 = CIRCLE ( 'NONE', #28, 8.000000000000000000 ) ;
#113 = CARTESIAN_POINT ( 'NONE',  ( 0.000000000000000000, 0.000000000000000000, 0.000000000000000000 ) ) ;
#114 = DIRECTION ( 'NONE',  ( -0.000000000000000000, -0.000000000000000000, -1.000000000000000000 ) ) ;
#115 = CARTESIAN_POINT ( 'NONE',  ( 0.000000000000000000, 0.000000000000000000, 0.000000000000000000 ) ) ;
#116 = DIRECTION ( 'NONE',  ( 1.000000000000000000, 0.000000000000000000, -0.000000000000000000 ) ) ;
#117 = PERSON_AND_ORGANIZATION_ROLE ( 'classification_officer' ) ;
#118 = ORIENTED_EDGE ( 'NONE', *, *, #217, .F. ) ;
#119 = CC_DESIGN_PERSON_AND_ORGANIZATION_ASSIGNMENT ( #22, #117, ( #134 ) ) ;
#120 = DIRECTION ( 'NONE',  ( 0.000000000000000000, 0.000000000000000000, 1.000000000000000000 ) ) ;
#121 = CARTESIAN_POINT ( 'NONE',  ( 0.000000000000000000, 0.000000000000000000, 5.200000000000009948 ) ) ;
#122 = APPROVAL_PERSON_ORGANIZATION ( #136, #143, #38 ) ;
#123 = CC_DESIGN_APPROVAL ( #186, ( #287 ) ) ;
#124 = EDGE_LOOP ( 'NONE', ( #272, #69 ) ) ;
#125 = FACE_OUTER_BOUND ( 'NONE', #34, .T. ) ;
#126 = EDGE_CURVE ( 'NONE', #142, #73, #164, .T. ) ;
#127 = ORIENTED_EDGE ( 'NONE', *, *, #203, .T. ) ;
#128 = VECTOR ( 'NONE', #213, 1000.000000000000000 ) ;
#129 = CARTESIAN_POINT ( 'NONE',  ( 5.000000000000000000, 6.123233995736766282E-16, 255.0000000000000000 ) ) ;
#130 = DIRECTION ( 'NONE',  ( -0.000000000000000000, -0.000000000000000000, -1.000000000000000000 ) ) ;
#131 = APPLICATION_CONTEXT ( 'configuration controlled 3d designs of mechanical parts and assemblies' ) ;
#132 = PERSON_AND_ORGANIZATION ( #59, #193 ) ;
#133 = AXIS2_PLACEMENT_3D ( 'NONE', #121, #197, #150 ) ;
#134 = SECURITY_CLASSIFICATION ( '', '', #138 ) ;
#135 = DIRECTION ( 'NONE',  ( 1.000000000000000000, 0.000000000000000000, 0.000000000000000000 ) ) ;
#136 = PERSON_AND_ORGANIZATION ( #59, #193 ) ;
#137 = CARTESIAN_POINT ( 'NONE',  ( 0.000000000000000000, 0.000000000000000000, 5.000000000000000000 ) ) ;
#138 = SECURITY_CLASSIFICATION_LEVEL ( 'unclassified' ) ;
#139 = DIRECTION ( 'NONE',  ( 0.000000000000000000, 0.000000000000000000, 1.000000000000000000 ) ) ;
#140 = ORIENTED_EDGE ( 'NONE', *, *, #260, .T. ) ;
#141 = AXIS2_PLACEMENT_3D ( 'NONE', #176, #254, #178 ) ;
#142 = VERTEX_POINT ( 'NONE', #40 ) ;
#143 = APPROVAL ( #235, 'NEURÈENÝ' ) ;
#144 = EDGE_LOOP ( 'NONE', ( #226, #47, #4, #27 ) ) ;
#145 = DIRECTION ( 'NONE',  ( -0.000000000000000000, -0.000000000000000000, -1.000000000000000000 ) ) ;
#146 = CIRCLE ( 'NONE', #191, 8.000000000000000000 ) ;
#147 = ORIENTED_EDGE ( 'NONE', *, *, #221, .T. ) ;
#148 = EDGE_LOOP ( 'NONE', ( #264, #118, #127, #286 ) ) ;
#149 = ADVANCED_FACE ( 'NONE', ( #252 ), #183, .T. ) ;
#150 = DIRECTION ( 'NONE',  ( 1.000000000000000000, 0.000000000000000000, 0.000000000000000000 ) ) ;
#151 = CARTESIAN_POINT ( 'NONE',  ( 0.000000000000000000, 0.000000000000000000, 255.0000000000000000 ) ) ;
#152 = LOCAL_TIME ( 14, 27, 54.00000000000000000, #157 ) ;
#153 = APPROVAL ( #111, 'NEURÈENÝ' ) ;
#154 = DIRECTION ( 'NONE',  ( 0.000000000000000000, 0.000000000000000000, 1.000000000000000000 ) ) ;
#155 = CALENDAR_DATE ( 2022, 7, 7 ) ;
#156 = DIRECTION ( 'NONE',  ( -0.000000000000000000, -0.000000000000000000, -1.000000000000000000 ) ) ;
#157 = COORDINATED_UNIVERSAL_TIME_OFFSET ( 1, 0, .AHEAD. ) ;
#158 = AXIS2_PLACEMENT_3D ( 'NONE', #74, #9, #200 ) ;
#159 = CARTESIAN_POINT ( 'NONE',  ( 5.200000000000000178, 0.000000000000000000, 5.200000000000009948 ) ) ;
#160 = CARTESIAN_POINT ( 'NONE',  ( 0.000000000000000000, 0.000000000000000000, 5.000000000000000000 ) ) ;
#161 = DATE_AND_TIME ( #215, #298 ) ;
#162 = ORIENTED_EDGE ( 'NONE', *, *, #190, .F. ) ;
#163 = ORIENTED_EDGE ( 'NONE', *, *, #1, .F. ) ;
#164 = CIRCLE ( 'NONE', #53, 5.000000000000000000 ) ;
#165 = CC_DESIGN_APPROVAL ( #153, ( #134 ) ) ;
#166 = EDGE_LOOP ( 'NONE', ( #25, #80 ) ) ;
#167 = EDGE_LOOP ( 'NONE', ( #147, #196 ) ) ;
#168 = CARTESIAN_POINT ( 'NONE',  ( 0.000000000000000000, 0.000000000000000000, 5.200000000000009948 ) ) ;
#169 = LOCAL_TIME ( 14, 27, 54.00000000000000000, #253 ) ;
#170 = PRODUCT_DEFINITION_SHAPE ( 'NONE', 'NONE',  #92 ) ;
#171 = FACE_OUTER_BOUND ( 'NONE', #166, .T. ) ;
#172 = CARTESIAN_POINT ( 'NONE',  ( 0.000000000000000000, 0.000000000000000000, 5.000000000000000000 ) ) ;
#173 = DIRECTION ( 'NONE',  ( 1.000000000000000000, 0.000000000000000000, 0.000000000000000000 ) ) ;
#174 = AXIS2_PLACEMENT_3D ( 'NONE', #151, #294, #279 ) ;
#175 = EDGE_LOOP ( 'NONE', ( #23, #94, #245, #243 ) ) ;
#176 = CARTESIAN_POINT ( 'NONE',  ( 0.000000000000000000, 0.000000000000000000, 5.000000000000000000 ) ) ;
#177 = CC_DESIGN_PERSON_AND_ORGANIZATION_ASSIGNMENT ( #43, #65, ( #287 ) ) ;
#178 = DIRECTION ( 'NONE',  ( -1.000000000000000000, 0.000000000000000000, 0.000000000000000000 ) ) ;
#179 = PERSON_AND_ORGANIZATION_ROLE ( 'design_owner' ) ;
#180 = VECTOR ( 'NONE', #114, 1000.000000000000000 ) ;
#181 = LINE ( 'NONE', #129, #128 ) ;
#182 = SHAPE_DEFINITION_REPRESENTATION ( #170, #97 ) ;
#183 = CYLINDRICAL_SURFACE ( 'NONE', #174, 5.000000000000000000 ) ;
#184 = DATE_AND_TIME ( #88, #152 ) ;
#185 = DIRECTION ( 'NONE',  ( 0.000000000000000000, -1.000000000000000000, 0.000000000000000000 ) ) ;
#186 = APPROVAL ( #259, 'NEURÈENÝ' ) ;
#187 = COORDINATED_UNIVERSAL_TIME_OFFSET ( 1, 0, .AHEAD. ) ;
#188 =( LENGTH_UNIT ( ) NAMED_UNIT ( * ) SI_UNIT ( .MILLI., .METRE. ) );
#189 = DATE_TIME_ROLE ( 'classification_date' ) ;
#190 = EDGE_CURVE ( 'NONE', #240, #249, #3, .T. ) ;
#191 = AXIS2_PLACEMENT_3D ( 'NONE', #33, #5, #99 ) ;
#192 = EDGE_LOOP ( 'NONE', ( #285, #70 ) ) ;
#193 = ORGANIZATION ( 'NEURÈENÝ', 'NEURÈENÝ', '' ) ;
#194 = VERTEX_POINT ( 'NONE', #61 ) ;
#195 = EDGE_CURVE ( 'NONE', #29, #48, #46, .T. ) ;
#196 = ORIENTED_EDGE ( 'NONE', *, *, #190, .T. ) ;
#197 = DIRECTION ( 'NONE',  ( 0.000000000000000000, 0.000000000000000000, 1.000000000000000000 ) ) ;
#198 = DIRECTION ( 'NONE',  ( 1.000000000000000000, 0.000000000000000000, -0.000000000000000000 ) ) ;
#199 = DIRECTION ( 'NONE',  ( 1.000000000000000000, 0.000000000000000000, 0.000000000000000000 ) ) ;
#200 = DIRECTION ( 'NONE',  ( 1.000000000000000000, 0.000000000000000000, 0.000000000000000000 ) ) ;
#201 = AXIS2_PLACEMENT_3D ( 'NONE', #137, #108, #87 ) ;
#202 = LINE ( 'NONE', #270, #261 ) ;
#203 = EDGE_CURVE ( 'NONE', #284, #95, #274, .T. ) ;
#204 = FACE_OUTER_BOUND ( 'NONE', #148, .T. ) ;
#205 = DATE_AND_TIME ( #257, #299 ) ;
#206 = TOROIDAL_SURFACE ( 'NONE', #224, 5.200000000000000178, 0.2000000000000000111 ) ;
#207 = CIRCLE ( 'NONE', #68, 5.000000000000000000 ) ;
#208 = CARTESIAN_POINT ( 'NONE',  ( 0.000000000000000000, 0.000000000000000000, 5.000000000000000000 ) ) ;
#209 = DIRECTION ( 'NONE',  ( 1.000000000000000000, 0.000000000000000000, 0.000000000000000000 ) ) ;
#210 = DIRECTION ( 'NONE',  ( 1.000000000000000000, 0.000000000000000000, 0.000000000000000000 ) ) ;
#211 = MECHANICAL_CONTEXT ( 'NONE', #131, 'mechanical' ) ;
#212 = EDGE_CURVE ( 'NONE', #194, #10, #58, .T. ) ;
#213 = DIRECTION ( 'NONE',  ( -0.000000000000000000, -0.000000000000000000, -1.000000000000000000 ) ) ;
#214 = APPROVAL_DATE_TIME ( #184, #186 ) ;
#215 = CALENDAR_DATE ( 2022, 7, 7 ) ;
#216 = CC_DESIGN_DATE_AND_TIME_ASSIGNMENT ( #93, #189, ( #134 ) ) ;
#217 = EDGE_CURVE ( 'NONE', #284, #194, #112, .T. ) ;
#218 = CARTESIAN_POINT ( 'NONE',  ( -5.000000000000000000, 0.000000000000000000, 255.0000000000000000 ) ) ;
#219 = DIRECTION ( 'NONE',  ( 1.000000000000000000, 0.000000000000000000, 0.000000000000000000 ) ) ;
#220 = AXIS2_PLACEMENT_3D ( 'NONE', #160, #130, #63 ) ;
#221 = EDGE_CURVE ( 'NONE', #249, #240, #44, .T. ) ;
#222 = CARTESIAN_POINT ( 'NONE',  ( -8.000000000000000000, 0.000000000000000000, 0.000000000000000000 ) ) ;
#223 = CARTESIAN_POINT ( 'NONE',  ( 8.000000000000000000, 9.797174393178825657E-16, 0.000000000000000000 ) ) ;
#224 = AXIS2_PLACEMENT_3D ( 'NONE', #32, #120, #199 ) ;
#225 = EDGE_CURVE ( 'NONE', #10, #95, #251, .T. ) ;
#226 = ORIENTED_EDGE ( 'NONE', *, *, #260, .F. ) ;
#227 = AXIS2_PLACEMENT_3D ( 'NONE', #159, #185, #82 ) ;
#228 = FACE_OUTER_BOUND ( 'NONE', #192, .T. ) ;
#229 = DIRECTION ( 'NONE',  ( -0.000000000000000000, -0.000000000000000000, -1.000000000000000000 ) ) ;
#230 = PERSON_AND_ORGANIZATION ( #59, #193 ) ;
#231 = DIRECTION ( 'NONE',  ( 0.000000000000000000, 0.000000000000000000, 1.000000000000000000 ) ) ;
#232 = ADVANCED_FACE ( 'NONE', ( #236 ), #37, .T. ) ;
#233 = CC_DESIGN_APPROVAL ( #143, ( #92 ) ) ;
#234 = DIRECTION ( 'NONE',  ( 1.000000000000000000, 0.000000000000000000, 0.000000000000000000 ) ) ;
#235 = APPROVAL_STATUS ( 'not_yet_approved' ) ;
#236 = FACE_OUTER_BOUND ( 'NONE', #78, .T. ) ;
#237 = CC_DESIGN_PERSON_AND_ORGANIZATION_ASSIGNMENT ( #18, #305, ( #287 ) ) ;
#238 = PERSON_AND_ORGANIZATION ( #59, #193 ) ;
#239 = ORIENTED_EDGE ( 'NONE', *, *, #195, .F. ) ;
#240 = VERTEX_POINT ( 'NONE', #277 ) ;
#241 = CC_DESIGN_PERSON_AND_ORGANIZATION_ASSIGNMENT ( #238, #67, ( #92 ) ) ;
#242 = LOCAL_TIME ( 14, 27, 54.00000000000000000, #187 ) ;
#243 = ORIENTED_EDGE ( 'NONE', *, *, #203, .F. ) ;
#244 = FACE_OUTER_BOUND ( 'NONE', #45, .T. ) ;
#245 = ORIENTED_EDGE ( 'NONE', *, *, #225, .T. ) ;
#246 = APPROVAL_PERSON_ORGANIZATION ( #14, #153, #86 ) ;
#247 = UNCERTAINTY_MEASURE_WITH_UNIT (LENGTH_MEASURE( 1.000000000000000082E-05 ), #188, 'distance_accuracy_value', 'NONE');
#248 = DIRECTION ( 'NONE',  ( -0.000000000000000000, -0.000000000000000000, -1.000000000000000000 ) ) ;
#249 = VERTEX_POINT ( 'NONE', #13 ) ;
#250 = CARTESIAN_POINT ( 'NONE',  ( 0.000000000000000000, 0.000000000000000000, 255.0000000000000000 ) ) ;
#251 = CIRCLE ( 'NONE', #307, 8.000000000000000000 ) ;
#252 = FACE_OUTER_BOUND ( 'NONE', #144, .T. ) ;
#253 = COORDINATED_UNIVERSAL_TIME_OFFSET ( 1, 0, .AHEAD. ) ;
#254 = DIRECTION ( 'NONE',  ( -0.000000000000000000, -0.000000000000000000, -1.000000000000000000 ) ) ;
#255 = COORDINATED_UNIVERSAL_TIME_OFFSET ( 1, 0, .AHEAD. ) ;
#256 = DIRECTION ( 'NONE',  ( 0.000000000000000000, 0.000000000000000000, 1.000000000000000000 ) ) ;
#257 = CALENDAR_DATE ( 2022, 7, 7 ) ;
#258 = DIRECTION ( 'NONE',  ( 0.000000000000000000, 0.000000000000000000, 1.000000000000000000 ) ) ;
#259 = APPROVAL_STATUS ( 'not_yet_approved' ) ;
#260 = EDGE_CURVE ( 'NONE', #29, #142, #181, .T. ) ;
#261 = VECTOR ( 'NONE', #145, 1000.000000000000000 ) ;
#262 = ORIENTED_EDGE ( 'NONE', *, *, #96, .F. ) ;
#263 = ORIENTED_EDGE ( 'NONE', *, *, #221, .F. ) ;
#264 = ORIENTED_EDGE ( 'NONE', *, *, #212, .F. ) ;
#265 = ADVANCED_FACE ( 'NONE', ( #304, #228 ), #297, .T. ) ;
#266 = ORIENTED_EDGE ( 'NONE', *, *, #126, .F. ) ;
#267 = DIRECTION ( 'NONE',  ( 0.000000000000000000, 0.000000000000000000, 1.000000000000000000 ) ) ;
#268 = ORIENTED_EDGE ( 'NONE', *, *, #126, .T. ) ;
#269 = DIRECTION ( 'NONE',  ( -1.000000000000000000, 0.000000000000000000, 0.000000000000000000 ) ) ;
#270 = CARTESIAN_POINT ( 'NONE',  ( -5.000000000000000000, 0.000000000000000000, 255.0000000000000000 ) ) ;
#271 = VECTOR ( 'NONE', #20, 1000.000000000000000 ) ;
#272 = ORIENTED_EDGE ( 'NONE', *, *, #19, .T. ) ;
#273 = CARTESIAN_POINT ( 'NONE',  ( 8.000000000000000000, 9.797174393178825657E-16, 5.000000000000000000 ) ) ;
#274 = LINE ( 'NONE', #83, #180 ) ;
#275 = APPROVAL_PERSON_ORGANIZATION ( #132, #186, #300 ) ;
#276 = ADVANCED_FACE ( 'NONE', ( #11 ), #90, .T. ) ;
#277 = CARTESIAN_POINT ( 'NONE',  ( -5.200000000000000178, 6.368163355566236381E-16, 5.000000000000005329 ) ) ;
#278 = APPLICATION_PROTOCOL_DEFINITION ( 'international standard', 'config_control_design', 1994, #131 ) ;
#279 = DIRECTION ( 'NONE',  ( -1.000000000000000000, 0.000000000000000000, 0.000000000000000000 ) ) ;
#280 = DIRECTION ( 'NONE',  ( 1.000000000000000000, 0.000000000000000000, 0.000000000000000000 ) ) ;
#281 =( NAMED_UNIT ( * ) SI_UNIT ( $, .STERADIAN. ) SOLID_ANGLE_UNIT ( ) );
#282 = CC_DESIGN_SECURITY_CLASSIFICATION ( #134, ( #287 ) ) ;
#283 = COORDINATED_UNIVERSAL_TIME_OFFSET ( 1, 0, .AHEAD. ) ;
#284 = VERTEX_POINT ( 'NONE', #15 ) ;
#285 = ORIENTED_EDGE ( 'NONE', *, *, #217, .T. ) ;
#286 = ORIENTED_EDGE ( 'NONE', *, *, #51, .T. ) ;
#287 = PRODUCT_DEFINITION_FORMATION_WITH_SPECIFIED_SOURCE ( 'LIBOVOLNÝ', '', #293, .NOT_KNOWN. ) ;
#288 = CARTESIAN_POINT ( 'NONE',  ( -5.000000000000000000, 0.000000000000000000, 5.200000000000009948 ) ) ;
#289 = FACE_OUTER_BOUND ( 'NONE', #175, .T. ) ;
#290 = DIRECTION ( 'NONE',  ( -1.000000000000000000, 1.224646799147353454E-16, 0.000000000000000000 ) ) ;
#291 = EDGE_CURVE ( 'NONE', #142, #249, #16, .T. ) ;
#292 = ORIENTED_EDGE ( 'NONE', *, *, #96, .T. ) ;
#293 = PRODUCT ( '3b1a', '3b1a', '', ( #211 ) ) ;
#294 = DIRECTION ( 'NONE',  ( -0.000000000000000000, -0.000000000000000000, -1.000000000000000000 ) ) ;
#295 = CYLINDRICAL_SURFACE ( 'NONE', #141, 8.000000000000000000 ) ;
#296 = TOROIDAL_SURFACE ( 'NONE', #30, 5.200000000000000178, 0.2000000000000000111 ) ;
#297 = PLANE ( 'NONE',  #201 ) ;
#298 = LOCAL_TIME ( 14, 27, 54.00000000000000000, #255 ) ;
#299 = LOCAL_TIME ( 14, 27, 54.00000000000000000, #283 ) ;
#300 = APPROVAL_ROLE ( '' ) ;
#301 = DIRECTION ( 'NONE',  ( -1.000000000000000000, 0.000000000000000000, 0.000000000000000000 ) ) ;
#302 = APPLICATION_PROTOCOL_DEFINITION ( 'international standard', 'config_control_design', 1994, #49 ) ;
#303 = ADVANCED_FACE ( 'NONE', ( #204 ), #295, .T. ) ;
#304 = FACE_BOUND ( 'NONE', #167, .T. ) ;
#305 = PERSON_AND_ORGANIZATION_ROLE ( 'creator' ) ;
#306 = CALENDAR_DATE ( 2022, 7, 7 ) ;
#307 = AXIS2_PLACEMENT_3D ( 'NONE', #113, #256, #234 ) ;
ENDSEC;
END-ISO-10303-21;
