ISO-10303-21;
HEADER;
FILE_DESCRIPTION (( 'STEP AP203' ),
    '1' );
FILE_NAME ('5c32.STEP',
    '2022-07-07T12:52:03',
    ( '' ),
    ( '' ),
    'SwSTEP 2.0',
    'SolidWorks 2019',
    '' );
FILE_SCHEMA (( 'CONFIG_CONTROL_DESIGN' ));
ENDSEC;

DATA;
#1 = EDGE_CURVE ( 'NONE', #246, #282, #89, .T. ) ;
#2 = CARTESIAN_POINT ( 'NONE',  ( 0.000000000000000000, 0.000000000000000000, 3.000000000000000000 ) ) ;
#3 = VECTOR ( 'NONE', #164, 1000.000000000000000 ) ;
#4 = ORIENTED_EDGE ( 'NONE', *, *, #1, .T. ) ;
#5 = EDGE_LOOP ( 'NONE', ( #228, #257, #227, #151 ) ) ;
#6 = PRODUCT_RELATED_PRODUCT_CATEGORY ( 'detail', '', ( #46 ) ) ;
#7 = CARTESIAN_POINT ( 'NONE',  ( 0.000000000000000000, 0.000000000000000000, 3.000000000000000000 ) ) ;
#8 = VECTOR ( 'NONE', #145, 1000.000000000000000 ) ;
#9 = DIRECTION ( 'NONE',  ( 0.000000000000000000, 0.000000000000000000, 1.000000000000000000 ) ) ;
#10 = DIRECTION ( 'NONE',  ( 0.000000000000000000, 0.000000000000000000, 1.000000000000000000 ) ) ;
#11 = DIRECTION ( 'NONE',  ( -0.000000000000000000, -0.000000000000000000, -1.000000000000000000 ) ) ;
#12 = PLANE ( 'NONE',  #115 ) ;
#13 = AXIS2_PLACEMENT_3D ( 'NONE', #2, #136, #139 ) ;
#14 = DIRECTION ( 'NONE',  ( 1.000000000000000000, 0.000000000000000000, -0.000000000000000000 ) ) ;
#15 = COORDINATED_UNIVERSAL_TIME_OFFSET ( 1, 0, .AHEAD. ) ;
#16 = CC_DESIGN_PERSON_AND_ORGANIZATION_ASSIGNMENT ( #203, #226, ( #261 ) ) ;
#17 = EDGE_CURVE ( 'NONE', #106, #224, #222, .T. ) ;
#18 =( LENGTH_UNIT ( ) NAMED_UNIT ( * ) SI_UNIT ( .MILLI., .METRE. ) );
#19 = PERSON_AND_ORGANIZATION ( #270, #256 ) ;
#20 =( GEOMETRIC_REPRESENTATION_CONTEXT ( 3 ) GLOBAL_UNCERTAINTY_ASSIGNED_CONTEXT ( ( #184 ) ) GLOBAL_UNIT_ASSIGNED_CONTEXT ( ( #18, #64, #302 ) ) REPRESENTATION_CONTEXT ( 'NONE', 'WORKASPACE' ) );
#21 = ADVANCED_FACE ( 'NONE', ( #281 ), #73, .T. ) ;
#22 = PRODUCT_DEFINITION ( 'NEZNÁMÝ', '', #261, #28 ) ;
#23 = APPROVAL_DATE_TIME ( #230, #63 ) ;
#24 = EDGE_CURVE ( 'NONE', #282, #246, #147, .T. ) ;
#25 = ORIENTED_EDGE ( 'NONE', *, *, #297, .F. ) ;
#26 = CARTESIAN_POINT ( 'NONE',  ( 0.000000000000000000, 0.000000000000000000, 3.000000000000000000 ) ) ;
#27 = LOCAL_TIME ( 14, 52, 3.000000000000000000, #276 ) ;
#28 = DESIGN_CONTEXT ( 'detailed design', #288, 'design' ) ;
#29 = VERTEX_POINT ( 'NONE', #120 ) ;
#30 = CARTESIAN_POINT ( 'NONE',  ( 0.000000000000000000, 0.000000000000000000, 318.0000000000000000 ) ) ;
#31 = CARTESIAN_POINT ( 'NONE',  ( 0.000000000000000000, 0.000000000000000000, 318.0000000000000000 ) ) ;
#32 = ADVANCED_FACE ( 'NONE', ( #234 ), #117, .T. ) ;
#33 = DIRECTION ( 'NONE',  ( 0.000000000000000000, 0.000000000000000000, 1.000000000000000000 ) ) ;
#34 = DIRECTION ( 'NONE',  ( -1.000000000000000000, 0.000000000000000000, 0.000000000000000000 ) ) ;
#35 = LINE ( 'NONE', #124, #194 ) ;
#36 = DIRECTION ( 'NONE',  ( 1.000000000000000000, 0.000000000000000000, 0.000000000000000000 ) ) ;
#37 = PLANE ( 'NONE',  #254 ) ;
#38 = AXIS2_PLACEMENT_3D ( 'NONE', #71, #160, #96 ) ;
#39 = DIRECTION ( 'NONE',  ( 1.000000000000000000, 0.000000000000000000, 0.000000000000000000 ) ) ;
#40 = APPROVAL_PERSON_ORGANIZATION ( #107, #63, #116 ) ;
#41 = EDGE_LOOP ( 'NONE', ( #255, #97, #280, #301 ) ) ;
#42 = MECHANICAL_CONTEXT ( 'NONE', #271, 'mechanical' ) ;
#43 = LOCAL_TIME ( 14, 52, 3.000000000000000000, #15 ) ;
#44 = ADVANCED_FACE ( 'NONE', ( #51 ), #163, .T. ) ;
#45 = EDGE_LOOP ( 'NONE', ( #188, #112, #50, #135 ) ) ;
#46 = PRODUCT ( '5c32', '5c32', '', ( #42 ) ) ;
#47 = ORIENTED_EDGE ( 'NONE', *, *, #168, .F. ) ;
#48 = EDGE_CURVE ( 'NONE', #212, #157, #128, .T. ) ;
#49 = DIRECTION ( 'NONE',  ( 1.000000000000000000, 0.000000000000000000, 0.000000000000000000 ) ) ;
#50 = ORIENTED_EDGE ( 'NONE', *, *, #48, .T. ) ;
#51 = FACE_OUTER_BOUND ( 'NONE', #41, .T. ) ;
#52 = TOROIDAL_SURFACE ( 'NONE', #205, 1.950000000000000400, 0.2000000000000000111 ) ;
#53 = CC_DESIGN_PERSON_AND_ORGANIZATION_ASSIGNMENT ( #109, #105, ( #261 ) ) ;
#54 = EDGE_CURVE ( 'NONE', #29, #157, #142, .T. ) ;
#55 = TOROIDAL_SURFACE ( 'NONE', #190, 1.950000000000000400, 0.2000000000000000111 ) ;
#56 = ORIENTED_EDGE ( 'NONE', *, *, #68, .T. ) ;
#57 = AXIS2_PLACEMENT_3D ( 'NONE', #198, #91, #39 ) ;
#58 = DIRECTION ( 'NONE',  ( -1.000000000000000000, 0.000000000000000000, 0.000000000000000000 ) ) ;
#59 = DIRECTION ( 'NONE',  ( 1.000000000000000000, 0.000000000000000000, 0.000000000000000000 ) ) ;
#60 = FACE_OUTER_BOUND ( 'NONE', #5, .T. ) ;
#61 = CARTESIAN_POINT ( 'NONE',  ( 3.500000000000000444, 4.286263797015737088E-16, 3.000000000000000000 ) ) ;
#62 = CARTESIAN_POINT ( 'NONE',  ( -1.750000000000000222, 0.000000000000000000, 3.199999999999980638 ) ) ;
#63 = APPROVAL ( #201, 'NEURÈENÝ' ) ;
#64 =( NAMED_UNIT ( * ) PLANE_ANGLE_UNIT ( ) SI_UNIT ( $, .RADIAN. ) );
#65 = APPROVAL_DATE_TIME ( #93, #229 ) ;
#66 = ORIENTED_EDGE ( 'NONE', *, *, #1, .F. ) ;
#67 = COORDINATED_UNIVERSAL_TIME_OFFSET ( 1, 0, .AHEAD. ) ;
#68 = EDGE_CURVE ( 'NONE', #141, #182, #206, .T. ) ;
#69 = DATE_TIME_ROLE ( 'creation_date' ) ;
#70 = ORIENTED_EDGE ( 'NONE', *, *, #297, .T. ) ;
#71 = CARTESIAN_POINT ( 'NONE',  ( 0.000000000000000000, 0.000000000000000000, 3.000000000000000000 ) ) ;
#72 = CC_DESIGN_PERSON_AND_ORGANIZATION_ASSIGNMENT ( #248, #178, ( #22 ) ) ;
#73 = PLANE ( 'NONE',  #284 ) ;
#74 = EDGE_LOOP ( 'NONE', ( #277, #140, #70, #132 ) ) ;
#75 = APPROVAL_PERSON_ORGANIZATION ( #19, #229, #86 ) ;
#76 = ORIENTED_EDGE ( 'NONE', *, *, #24, .T. ) ;
#77 = EDGE_LOOP ( 'NONE', ( #76, #4 ) ) ;
#78 = EDGE_CURVE ( 'NONE', #176, #212, #273, .T. ) ;
#79 = CARTESIAN_POINT ( 'NONE',  ( 1.950000000000000400, 0.000000000000000000, 2.999999999999990674 ) ) ;
#80 = LINE ( 'NONE', #252, #126 ) ;
#81 = EDGE_CURVE ( 'NONE', #157, #29, #155, .T. ) ;
#82 = ADVANCED_FACE ( 'NONE', ( #60 ), #55, .F. ) ;
#83 = FACE_OUTER_BOUND ( 'NONE', #77, .T. ) ;
#84 = CARTESIAN_POINT ( 'NONE',  ( 3.500000000000000444, 4.286263797015737088E-16, 3.000000000000000000 ) ) ;
#85 = CARTESIAN_POINT ( 'NONE',  ( 0.000000000000000000, 0.000000000000000000, 3.000000000000000000 ) ) ;
#86 = APPROVAL_ROLE ( '' ) ;
#87 = AXIS2_PLACEMENT_3D ( 'NONE', #103, #294, #34 ) ;
#88 = APPLICATION_PROTOCOL_DEFINITION ( 'international standard', 'config_control_design', 1994, #271 ) ;
#89 = CIRCLE ( 'NONE', #108, 3.500000000000000444 ) ;
#90 = CALENDAR_DATE ( 2022, 7, 7 ) ;
#91 = DIRECTION ( 'NONE',  ( 0.000000000000000000, 0.000000000000000000, 1.000000000000000000 ) ) ;
#92 = CIRCLE ( 'NONE', #259, 3.500000000000000444 ) ;
#93 = DATE_AND_TIME ( #274, #207 ) ;
#94 = DIRECTION ( 'NONE',  ( 0.000000000000000000, 0.000000000000000000, 1.000000000000000000 ) ) ;
#95 = DIRECTION ( 'NONE',  ( 0.000000000000000000, 0.000000000000000000, 1.000000000000000000 ) ) ;
#96 = DIRECTION ( 'NONE',  ( 1.000000000000000000, 0.000000000000000000, 0.000000000000000000 ) ) ;
#97 = ORIENTED_EDGE ( 'NONE', *, *, #24, .F. ) ;
#98 = DIRECTION ( 'NONE',  ( -1.000000000000000000, 0.000000000000000000, 0.000000000000000000 ) ) ;
#99 = AXIS2_PLACEMENT_3D ( 'NONE', #167, #146, #58 ) ;
#100 = CARTESIAN_POINT ( 'NONE',  ( 3.500000000000000444, 4.286263797015737088E-16, 0.000000000000000000 ) ) ;
#101 = CARTESIAN_POINT ( 'NONE',  ( 0.000000000000000000, 0.000000000000000000, 3.199999999999980638 ) ) ;
#102 = LINE ( 'NONE', #84, #8 ) ;
#103 = CARTESIAN_POINT ( 'NONE',  ( 0.000000000000000000, 0.000000000000000000, 318.0000000000000000 ) ) ;
#104 = CC_DESIGN_APPROVAL ( #63, ( #165 ) ) ;
#105 = PERSON_AND_ORGANIZATION_ROLE ( 'creator' ) ;
#106 = VERTEX_POINT ( 'NONE', #266 ) ;
#107 = PERSON_AND_ORGANIZATION ( #270, #256 ) ;
#108 = AXIS2_PLACEMENT_3D ( 'NONE', #287, #94, #215 ) ;
#109 = PERSON_AND_ORGANIZATION ( #270, #256 ) ;
#110 = ORIENTED_EDGE ( 'NONE', *, *, #169, .T. ) ;
#111 = SECURITY_CLASSIFICATION_LEVEL ( 'unclassified' ) ;
#112 = ORIENTED_EDGE ( 'NONE', *, *, #210, .F. ) ;
#113 = DIRECTION ( 'NONE',  ( -0.000000000000000000, -0.000000000000000000, -1.000000000000000000 ) ) ;
#114 = DIRECTION ( 'NONE',  ( 1.000000000000000000, 0.000000000000000000, -0.000000000000000000 ) ) ;
#115 = AXIS2_PLACEMENT_3D ( 'NONE', #85, #9, #166 ) ;
#116 = APPROVAL_ROLE ( '' ) ;
#117 = CYLINDRICAL_SURFACE ( 'NONE', #13, 3.500000000000000444 ) ;
#118 = AXIS2_PLACEMENT_3D ( 'NONE', #30, #211, #237 ) ;
#119 = DIRECTION ( 'NONE',  ( 0.000000000000000000, 0.000000000000000000, 1.000000000000000000 ) ) ;
#120 = CARTESIAN_POINT ( 'NONE',  ( -1.950000000000000400, 2.388061258337339136E-16, 2.999999999999990674 ) ) ;
#121 = CC_DESIGN_DATE_AND_TIME_ASSIGNMENT ( #150, #69, ( #22 ) ) ;
#122 = DIRECTION ( 'NONE',  ( 1.000000000000000000, 0.000000000000000000, 0.000000000000000000 ) ) ;
#123 = DIRECTION ( 'NONE',  ( 0.000000000000000000, 0.000000000000000000, 1.000000000000000000 ) ) ;
#124 = CARTESIAN_POINT ( 'NONE',  ( 1.750000000000000222, 2.143131898507868544E-16, 318.0000000000000000 ) ) ;
#125 = CARTESIAN_POINT ( 'NONE',  ( 0.000000000000000000, 0.000000000000000000, 3.199999999999980638 ) ) ;
#126 = VECTOR ( 'NONE', #278, 1000.000000000000000 ) ;
#127 = CARTESIAN_POINT ( 'NONE',  ( 0.000000000000000000, 0.000000000000000000, 0.000000000000000000 ) ) ;
#128 = CIRCLE ( 'NONE', #196, 0.2000000000000000944 ) ;
#129 = MANIFOLD_SOLID_BREP ( 'Zaoblit1', #137 ) ;
#130 = COORDINATED_UNIVERSAL_TIME_OFFSET ( 1, 0, .AHEAD. ) ;
#131 = APPROVAL_STATUS ( 'not_yet_approved' ) ;
#132 = ORIENTED_EDGE ( 'NONE', *, *, #78, .T. ) ;
#133 = APPROVAL_PERSON_ORGANIZATION ( #152, #269, #251 ) ;
#134 = CC_DESIGN_DATE_AND_TIME_ASSIGNMENT ( #225, #300, ( #165 ) ) ;
#135 = ORIENTED_EDGE ( 'NONE', *, *, #54, .F. ) ;
#136 = DIRECTION ( 'NONE',  ( -0.000000000000000000, -0.000000000000000000, -1.000000000000000000 ) ) ;
#137 = CLOSED_SHELL ( 'NONE', ( #82, #213, #32, #44, #179, #283, #242, #21, #264 ) ) ;
#138 = AXIS2_PLACEMENT_3D ( 'NONE', #162, #214, #253 ) ;
#139 = DIRECTION ( 'NONE',  ( -1.000000000000000000, 0.000000000000000000, 0.000000000000000000 ) ) ;
#140 = ORIENTED_EDGE ( 'NONE', *, *, #17, .F. ) ;
#141 = VERTEX_POINT ( 'NONE', #100 ) ;
#142 = CIRCLE ( 'NONE', #38, 1.950000000000000400 ) ;
#143 = EDGE_LOOP ( 'NONE', ( #180, #153 ) ) ;
#144 = LOCAL_TIME ( 14, 52, 3.000000000000000000, #208 ) ;
#145 = DIRECTION ( 'NONE',  ( -0.000000000000000000, -0.000000000000000000, -1.000000000000000000 ) ) ;
#146 = DIRECTION ( 'NONE',  ( -0.000000000000000000, -0.000000000000000000, -1.000000000000000000 ) ) ;
#147 = CIRCLE ( 'NONE', #296, 3.500000000000000444 ) ;
#148 = FACE_OUTER_BOUND ( 'NONE', #45, .T. ) ;
#149 = CARTESIAN_POINT ( 'NONE',  ( -3.500000000000000444, 0.000000000000000000, 3.000000000000000000 ) ) ;
#150 = DATE_AND_TIME ( #154, #43 ) ;
#151 = ORIENTED_EDGE ( 'NONE', *, *, #48, .F. ) ;
#152 = PERSON_AND_ORGANIZATION ( #270, #256 ) ;
#153 = ORIENTED_EDGE ( 'NONE', *, *, #68, .F. ) ;
#154 = CALENDAR_DATE ( 2022, 7, 7 ) ;
#155 = CIRCLE ( 'NONE', #181, 1.950000000000000400 ) ;
#156 = ORIENTED_EDGE ( 'NONE', *, *, #81, .T. ) ;
#157 = VERTEX_POINT ( 'NONE', #79 ) ;
#158 = CARTESIAN_POINT ( 'NONE',  ( 0.000000000000000000, 0.000000000000000000, 0.000000000000000000 ) ) ;
#159 = AXIS2_PLACEMENT_3D ( 'NONE', #240, #10, #36 ) ;
#160 = DIRECTION ( 'NONE',  ( -0.000000000000000000, -0.000000000000000000, -1.000000000000000000 ) ) ;
#161 = EDGE_LOOP ( 'NONE', ( #66, #236, #56, #47 ) ) ;
#162 = CARTESIAN_POINT ( 'NONE',  ( 0.000000000000000000, 0.000000000000000000, 3.199999999999980638 ) ) ;
#163 = CYLINDRICAL_SURFACE ( 'NONE', #250, 3.500000000000000444 ) ;
#164 = DIRECTION ( 'NONE',  ( -0.000000000000000000, -0.000000000000000000, -1.000000000000000000 ) ) ;
#165 = SECURITY_CLASSIFICATION ( '', '', #111 ) ;
#166 = DIRECTION ( 'NONE',  ( 1.000000000000000000, 0.000000000000000000, -0.000000000000000000 ) ) ;
#167 = CARTESIAN_POINT ( 'NONE',  ( 0.000000000000000000, 0.000000000000000000, 318.0000000000000000 ) ) ;
#168 = EDGE_CURVE ( 'NONE', #282, #182, #217, .T. ) ;
#169 = EDGE_CURVE ( 'NONE', #224, #106, #249, .T. ) ;
#170 = CARTESIAN_POINT ( 'NONE',  ( -3.500000000000000444, 0.000000000000000000, 3.000000000000000000 ) ) ;
#171 = CC_DESIGN_APPROVAL ( #229, ( #22 ) ) ;
#172 = DIRECTION ( 'NONE',  ( 1.224646799147353207E-16, 1.000000000000000000, -0.000000000000000000 ) ) ;
#173 = APPROVAL_DATE_TIME ( #247, #269 ) ;
#174 = AXIS2_PLACEMENT_3D ( 'NONE', #298, #263, #292 ) ;
#175 = PERSON_AND_ORGANIZATION ( #270, #256 ) ;
#176 = VERTEX_POINT ( 'NONE', #62 ) ;
#177 = ORIENTED_EDGE ( 'NONE', *, *, #210, .T. ) ;
#178 = PERSON_AND_ORGANIZATION_ROLE ( 'creator' ) ;
#179 = ADVANCED_FACE ( 'NONE', ( #267, #83 ), #12, .T. ) ;
#180 = ORIENTED_EDGE ( 'NONE', *, *, #295, .F. ) ;
#181 = AXIS2_PLACEMENT_3D ( 'NONE', #26, #113, #307 ) ;
#182 = VERTEX_POINT ( 'NONE', #265 ) ;
#183 = ADVANCED_BREP_SHAPE_REPRESENTATION ( '5c32', ( #129, #57 ), #20 ) ;
#184 = UNCERTAINTY_MEASURE_WITH_UNIT (LENGTH_MEASURE( 1.000000000000000082E-05 ), #18, 'distance_accuracy_value', 'NONE');
#185 = DIRECTION ( 'NONE',  ( -0.000000000000000000, -0.000000000000000000, -1.000000000000000000 ) ) ;
#186 = DIRECTION ( 'NONE',  ( 0.000000000000000000, 0.000000000000000000, -1.000000000000000000 ) ) ;
#187 = LOCAL_TIME ( 14, 52, 3.000000000000000000, #130 ) ;
#188 = ORIENTED_EDGE ( 'NONE', *, *, #275, .F. ) ;
#189 = EDGE_LOOP ( 'NONE', ( #156, #202 ) ) ;
#190 = AXIS2_PLACEMENT_3D ( 'NONE', #101, #123, #59 ) ;
#191 = DIRECTION ( 'NONE',  ( 0.000000000000000000, 0.000000000000000000, 1.000000000000000000 ) ) ;
#192 = FACE_OUTER_BOUND ( 'NONE', #74, .T. ) ;
#193 = CARTESIAN_POINT ( 'NONE',  ( 1.750000000000000222, 2.143131898507868544E-16, 3.199999999999980638 ) ) ;
#194 = VECTOR ( 'NONE', #11, 1000.000000000000000 ) ;
#195 = CYLINDRICAL_SURFACE ( 'NONE', #87, 1.750000000000000222 ) ;
#196 = AXIS2_PLACEMENT_3D ( 'NONE', #231, #209, #186 ) ;
#197 = CARTESIAN_POINT ( 'NONE',  ( -1.950000000000000400, 2.388061258337339136E-16, 3.199999999999980638 ) ) ;
#198 = CARTESIAN_POINT ( 'NONE',  ( 0.000000000000000000, 0.000000000000000000, 0.000000000000000000 ) ) ;
#199 = CALENDAR_DATE ( 2022, 7, 7 ) ;
#200 = ORIENTED_EDGE ( 'NONE', *, *, #17, .T. ) ;
#201 = APPROVAL_STATUS ( 'not_yet_approved' ) ;
#202 = ORIENTED_EDGE ( 'NONE', *, *, #54, .T. ) ;
#203 = PERSON_AND_ORGANIZATION ( #270, #256 ) ;
#204 = EDGE_LOOP ( 'NONE', ( #285, #233, #177, #25 ) ) ;
#205 = AXIS2_PLACEMENT_3D ( 'NONE', #125, #216, #221 ) ;
#206 = CIRCLE ( 'NONE', #244, 3.500000000000000444 ) ;
#207 = LOCAL_TIME ( 14, 52, 3.000000000000000000, #67 ) ;
#208 = COORDINATED_UNIVERSAL_TIME_OFFSET ( 1, 0, .AHEAD. ) ;
#209 = DIRECTION ( 'NONE',  ( 0.000000000000000000, -1.000000000000000000, 0.000000000000000000 ) ) ;
#210 = EDGE_CURVE ( 'NONE', #212, #176, #293, .T. ) ;
#211 = DIRECTION ( 'NONE',  ( 0.000000000000000000, 0.000000000000000000, 1.000000000000000000 ) ) ;
#212 = VERTEX_POINT ( 'NONE', #193 ) ;
#213 = ADVANCED_FACE ( 'NONE', ( #223 ), #238, .T. ) ;
#214 = DIRECTION ( 'NONE',  ( 0.000000000000000000, 0.000000000000000000, 1.000000000000000000 ) ) ;
#215 = DIRECTION ( 'NONE',  ( 1.000000000000000000, 0.000000000000000000, 0.000000000000000000 ) ) ;
#216 = DIRECTION ( 'NONE',  ( 0.000000000000000000, 0.000000000000000000, 1.000000000000000000 ) ) ;
#217 = LINE ( 'NONE', #170, #3 ) ;
#218 = EDGE_CURVE ( 'NONE', #224, #212, #35, .T. ) ;
#219 = CARTESIAN_POINT ( 'NONE',  ( 1.750000000000000222, 2.143131898507868544E-16, 318.0000000000000000 ) ) ;
#220 = CIRCLE ( 'NONE', #279, 0.2000000000000000944 ) ;
#221 = DIRECTION ( 'NONE',  ( 1.000000000000000000, 0.000000000000000000, 0.000000000000000000 ) ) ;
#222 = CIRCLE ( 'NONE', #118, 1.750000000000000222 ) ;
#223 = FACE_OUTER_BOUND ( 'NONE', #204, .T. ) ;
#224 = VERTEX_POINT ( 'NONE', #219 ) ;
#225 = DATE_AND_TIME ( #199, #27 ) ;
#226 = PERSON_AND_ORGANIZATION_ROLE ( 'design_supplier' ) ;
#227 = ORIENTED_EDGE ( 'NONE', *, *, #81, .F. ) ;
#228 = ORIENTED_EDGE ( 'NONE', *, *, #78, .F. ) ;
#229 = APPROVAL ( #299, 'NEURÈENÝ' ) ;
#230 = DATE_AND_TIME ( #306, #144 ) ;
#231 = CARTESIAN_POINT ( 'NONE',  ( 1.950000000000000400, 0.000000000000000000, 3.199999999999980638 ) ) ;
#232 = CC_DESIGN_APPROVAL ( #269, ( #261 ) ) ;
#233 = ORIENTED_EDGE ( 'NONE', *, *, #218, .T. ) ;
#234 = FACE_OUTER_BOUND ( 'NONE', #161, .T. ) ;
#235 = SHAPE_DEFINITION_REPRESENTATION ( #241, #183 ) ;
#236 = ORIENTED_EDGE ( 'NONE', *, *, #239, .T. ) ;
#237 = DIRECTION ( 'NONE',  ( 1.000000000000000000, 0.000000000000000000, 0.000000000000000000 ) ) ;
#238 = CYLINDRICAL_SURFACE ( 'NONE', #99, 1.750000000000000222 ) ;
#239 = EDGE_CURVE ( 'NONE', #246, #141, #102, .T. ) ;
#240 = CARTESIAN_POINT ( 'NONE',  ( 0.000000000000000000, 0.000000000000000000, 3.199999999999980638 ) ) ;
#241 = PRODUCT_DEFINITION_SHAPE ( 'NONE', 'NONE',  #22 ) ;
#242 = ADVANCED_FACE ( 'NONE', ( #192 ), #195, .T. ) ;
#243 = FACE_OUTER_BOUND ( 'NONE', #143, .T. ) ;
#244 = AXIS2_PLACEMENT_3D ( 'NONE', #158, #119, #286 ) ;
#245 = PERSON_AND_ORGANIZATION_ROLE ( 'classification_officer' ) ;
#246 = VERTEX_POINT ( 'NONE', #61 ) ;
#247 = DATE_AND_TIME ( #90, #187 ) ;
#248 = PERSON_AND_ORGANIZATION ( #270, #256 ) ;
#249 = CIRCLE ( 'NONE', #174, 1.750000000000000222 ) ;
#250 = AXIS2_PLACEMENT_3D ( 'NONE', #7, #185, #98 ) ;
#251 = APPROVAL_ROLE ( '' ) ;
#252 = CARTESIAN_POINT ( 'NONE',  ( -1.750000000000000222, 0.000000000000000000, 318.0000000000000000 ) ) ;
#253 = DIRECTION ( 'NONE',  ( 1.000000000000000000, 0.000000000000000000, 0.000000000000000000 ) ) ;
#254 = AXIS2_PLACEMENT_3D ( 'NONE', #127, #191, #14 ) ;
#255 = ORIENTED_EDGE ( 'NONE', *, *, #239, .F. ) ;
#256 = ORGANIZATION ( 'NEURÈENÝ', 'NEURÈENÝ', '' ) ;
#257 = ORIENTED_EDGE ( 'NONE', *, *, #275, .T. ) ;
#258 = EDGE_LOOP ( 'NONE', ( #200, #110 ) ) ;
#259 = AXIS2_PLACEMENT_3D ( 'NONE', #291, #289, #122 ) ;
#260 = CARTESIAN_POINT ( 'NONE',  ( 0.000000000000000000, 0.000000000000000000, 3.000000000000000000 ) ) ;
#261 = PRODUCT_DEFINITION_FORMATION_WITH_SPECIFIED_SOURCE ( 'LIBOVOLNÝ', '', #46, .NOT_KNOWN. ) ;
#262 = CC_DESIGN_SECURITY_CLASSIFICATION ( #165, ( #261 ) ) ;
#263 = DIRECTION ( 'NONE',  ( 0.000000000000000000, 0.000000000000000000, 1.000000000000000000 ) ) ;
#264 = ADVANCED_FACE ( 'NONE', ( #148 ), #52, .F. ) ;
#265 = CARTESIAN_POINT ( 'NONE',  ( -3.500000000000000444, 0.000000000000000000, 0.000000000000000000 ) ) ;
#266 = CARTESIAN_POINT ( 'NONE',  ( -1.750000000000000222, 0.000000000000000000, 318.0000000000000000 ) ) ;
#267 = FACE_BOUND ( 'NONE', #189, .T. ) ;
#268 = DIRECTION ( 'NONE',  ( -1.000000000000000000, 1.224646799147353207E-16, 0.000000000000000000 ) ) ;
#269 = APPROVAL ( #131, 'NEURÈENÝ' ) ;
#270 = PERSON ( 'NEURÈENÝ', 'NEURÈENÝ', 'NEURÈENÝ', ('NEURÈENÝ'), ('NEURÈENÝ'), ('NEURÈENÝ') ) ;
#271 = APPLICATION_CONTEXT ( 'configuration controlled 3d designs of mechanical parts and assemblies' ) ;
#272 = PERSON_AND_ORGANIZATION ( #270, #256 ) ;
#273 = CIRCLE ( 'NONE', #138, 1.750000000000000222 ) ;
#274 = CALENDAR_DATE ( 2022, 7, 7 ) ;
#275 = EDGE_CURVE ( 'NONE', #176, #29, #220, .T. ) ;
#276 = COORDINATED_UNIVERSAL_TIME_OFFSET ( 1, 0, .AHEAD. ) ;
#277 = ORIENTED_EDGE ( 'NONE', *, *, #218, .F. ) ;
#278 = DIRECTION ( 'NONE',  ( -0.000000000000000000, -0.000000000000000000, -1.000000000000000000 ) ) ;
#279 = AXIS2_PLACEMENT_3D ( 'NONE', #197, #172, #268 ) ;
#280 = ORIENTED_EDGE ( 'NONE', *, *, #168, .T. ) ;
#281 = FACE_OUTER_BOUND ( 'NONE', #258, .T. ) ;
#282 = VERTEX_POINT ( 'NONE', #149 ) ;
#283 = ADVANCED_FACE ( 'NONE', ( #243 ), #37, .F. ) ;
#284 = AXIS2_PLACEMENT_3D ( 'NONE', #31, #95, #114 ) ;
#285 = ORIENTED_EDGE ( 'NONE', *, *, #169, .F. ) ;
#286 = DIRECTION ( 'NONE',  ( 1.000000000000000000, 0.000000000000000000, 0.000000000000000000 ) ) ;
#287 = CARTESIAN_POINT ( 'NONE',  ( 0.000000000000000000, 0.000000000000000000, 3.000000000000000000 ) ) ;
#288 = APPLICATION_CONTEXT ( 'configuration controlled 3d designs of mechanical parts and assemblies' ) ;
#289 = DIRECTION ( 'NONE',  ( 0.000000000000000000, 0.000000000000000000, 1.000000000000000000 ) ) ;
#290 = CC_DESIGN_PERSON_AND_ORGANIZATION_ASSIGNMENT ( #175, #305, ( #46 ) ) ;
#291 = CARTESIAN_POINT ( 'NONE',  ( 0.000000000000000000, 0.000000000000000000, 0.000000000000000000 ) ) ;
#292 = DIRECTION ( 'NONE',  ( 1.000000000000000000, 0.000000000000000000, 0.000000000000000000 ) ) ;
#293 = CIRCLE ( 'NONE', #159, 1.750000000000000222 ) ;
#294 = DIRECTION ( 'NONE',  ( -0.000000000000000000, -0.000000000000000000, -1.000000000000000000 ) ) ;
#295 = EDGE_CURVE ( 'NONE', #182, #141, #92, .T. ) ;
#296 = AXIS2_PLACEMENT_3D ( 'NONE', #260, #33, #49 ) ;
#297 = EDGE_CURVE ( 'NONE', #106, #176, #80, .T. ) ;
#298 = CARTESIAN_POINT ( 'NONE',  ( 0.000000000000000000, 0.000000000000000000, 318.0000000000000000 ) ) ;
#299 = APPROVAL_STATUS ( 'not_yet_approved' ) ;
#300 = DATE_TIME_ROLE ( 'classification_date' ) ;
#301 = ORIENTED_EDGE ( 'NONE', *, *, #295, .T. ) ;
#302 =( NAMED_UNIT ( * ) SI_UNIT ( $, .STERADIAN. ) SOLID_ANGLE_UNIT ( ) );
#303 = APPLICATION_PROTOCOL_DEFINITION ( 'international standard', 'config_control_design', 1994, #288 ) ;
#304 = CC_DESIGN_PERSON_AND_ORGANIZATION_ASSIGNMENT ( #272, #245, ( #165 ) ) ;
#305 = PERSON_AND_ORGANIZATION_ROLE ( 'design_owner' ) ;
#306 = CALENDAR_DATE ( 2022, 7, 7 ) ;
#307 = DIRECTION ( 'NONE',  ( 1.000000000000000000, 0.000000000000000000, 0.000000000000000000 ) ) ;
ENDSEC;
END-ISO-10303-21;
