ISO-10303-21;
HEADER;
FILE_DESCRIPTION (( 'STEP AP203' ),
    '1' );
FILE_NAME ('a9c7.STEP',
    '2023-02-12T11:53:26',
    ( '' ),
    ( '' ),
    'SwSTEP 2.0',
    'SolidWorks 2019',
    '' );
FILE_SCHEMA (( 'CONFIG_CONTROL_DESIGN' ));
ENDSEC;

DATA;
#1 = PRODUCT_DEFINITION_FORMATION_WITH_SPECIFIED_SOURCE ( 'LIBOVOLNÝ', '', #211, .NOT_KNOWN. ) ;
#2 = ADVANCED_BREP_SHAPE_REPRESENTATION ( 'a9c7', ( #130, #143 ), #230 ) ;
#3 = CARTESIAN_POINT ( 'NONE',  ( 0.000000000000000000, 0.000000000000000000, 3.000000000000000000 ) ) ;
#4 = LOCAL_TIME ( 12, 53, 26.00000000000000000, #197 ) ;
#5 = DIRECTION ( 'NONE',  ( 1.000000000000000000, 0.000000000000000000, -0.000000000000000000 ) ) ;
#6 = DIRECTION ( 'NONE',  ( 0.000000000000000000, 0.000000000000000000, 1.000000000000000000 ) ) ;
#7 = AXIS2_PLACEMENT_3D ( 'NONE', #49, #6, #170 ) ;
#8 = DIRECTION ( 'NONE',  ( 0.000000000000000000, 0.000000000000000000, 1.000000000000000000 ) ) ;
#9 = ORIENTED_EDGE ( 'NONE', *, *, #248, .T. ) ;
#10 = APPROVAL_STATUS ( 'not_yet_approved' ) ;
#11 = ADVANCED_FACE ( 'NONE', ( #253, #77 ), #155, .T. ) ;
#12 = VERTEX_POINT ( 'NONE', #105 ) ;
#13 = MECHANICAL_CONTEXT ( 'NONE', #245, 'mechanical' ) ;
#14 = PERSON_AND_ORGANIZATION ( #81, #116 ) ;
#15 = ORIENTED_EDGE ( 'NONE', *, *, #70, .F. ) ;
#16 = PERSON_AND_ORGANIZATION ( #81, #116 ) ;
#17 = ORIENTED_EDGE ( 'NONE', *, *, #43, .F. ) ;
#18 = ORIENTED_EDGE ( 'NONE', *, *, #196, .F. ) ;
#19 = EDGE_CURVE ( 'NONE', #218, #101, #184, .T. ) ;
#20 = CIRCLE ( 'NONE', #25, 4.000000000000000000 ) ;
#21 = CARTESIAN_POINT ( 'NONE',  ( 4.000000000000000000, 4.898587196589412829E-16, 0.000000000000000000 ) ) ;
#22 = APPROVAL_ROLE ( '' ) ;
#23 = CARTESIAN_POINT ( 'NONE',  ( 0.000000000000000000, 0.000000000000000000, 3.000000000000000000 ) ) ;
#24 = AXIS2_PLACEMENT_3D ( 'NONE', #44, #103, #165 ) ;
#25 = AXIS2_PLACEMENT_3D ( 'NONE', #27, #212, #30 ) ;
#26 = PRODUCT_DEFINITION_SHAPE ( 'NONE', 'NONE',  #226 ) ;
#27 = CARTESIAN_POINT ( 'NONE',  ( 0.000000000000000000, 0.000000000000000000, 0.000000000000000000 ) ) ;
#28 = DIRECTION ( 'NONE',  ( 1.000000000000000000, 0.000000000000000000, 0.000000000000000000 ) ) ;
#29 = DATE_TIME_ROLE ( 'creation_date' ) ;
#30 = DIRECTION ( 'NONE',  ( 1.000000000000000000, 0.000000000000000000, 0.000000000000000000 ) ) ;
#31 = CARTESIAN_POINT ( 'NONE',  ( 0.000000000000000000, 0.000000000000000000, 160.0000000000000000 ) ) ;
#32 = CALENDAR_DATE ( 2023, 12, 2 ) ;
#33 = AXIS2_PLACEMENT_3D ( 'NONE', #166, #221, #84 ) ;
#34 = DESIGN_CONTEXT ( 'detailed design', #123, 'design' ) ;
#35 = CIRCLE ( 'NONE', #86, 2.250000000000000000 ) ;
#36 = DIRECTION ( 'NONE',  ( 1.000000000000000000, 0.000000000000000000, 0.000000000000000000 ) ) ;
#37 = ORIENTED_EDGE ( 'NONE', *, *, #19, .F. ) ;
#38 = CARTESIAN_POINT ( 'NONE',  ( 0.000000000000000000, 0.000000000000000000, 0.000000000000000000 ) ) ;
#39 = VERTEX_POINT ( 'NONE', #82 ) ;
#40 = AXIS2_PLACEMENT_3D ( 'NONE', #255, #79, #180 ) ;
#41 = LOCAL_TIME ( 12, 53, 26.00000000000000000, #64 ) ;
#42 = ORIENTED_EDGE ( 'NONE', *, *, #179, .T. ) ;
#43 = EDGE_CURVE ( 'NONE', #39, #218, #210, .T. ) ;
#44 = CARTESIAN_POINT ( 'NONE',  ( 0.000000000000000000, 0.000000000000000000, 160.0000000000000000 ) ) ;
#45 = CLOSED_SHELL ( 'NONE', ( #67, #153, #115, #11, #97, #100, #145 ) ) ;
#46 = CC_DESIGN_APPROVAL ( #189, ( #181 ) ) ;
#47 = EDGE_CURVE ( 'NONE', #137, #75, #186, .T. ) ;
#48 = APPROVAL_DATE_TIME ( #237, #189 ) ;
#49 = CARTESIAN_POINT ( 'NONE',  ( 0.000000000000000000, 0.000000000000000000, 160.0000000000000000 ) ) ;
#50 = CARTESIAN_POINT ( 'NONE',  ( 2.250000000000000000, 2.755455298081544285E-16, 160.0000000000000000 ) ) ;
#51 = CYLINDRICAL_SURFACE ( 'NONE', #132, 4.000000000000000000 ) ;
#52 = CIRCLE ( 'NONE', #33, 2.250000000000000000 ) ;
#53 = EDGE_CURVE ( 'NONE', #101, #12, #52, .T. ) ;
#54 = CARTESIAN_POINT ( 'NONE',  ( -2.250000000000000000, 0.000000000000000000, 160.0000000000000000 ) ) ;
#55 = AXIS2_PLACEMENT_3D ( 'NONE', #168, #8, #92 ) ;
#56 = APPLICATION_PROTOCOL_DEFINITION ( 'international standard', 'config_control_design', 1994, #123 ) ;
#57 = AXIS2_PLACEMENT_3D ( 'NONE', #102, #122, #162 ) ;
#58 = ORIENTED_EDGE ( 'NONE', *, *, #43, .T. ) ;
#59 = ORIENTED_EDGE ( 'NONE', *, *, #233, .F. ) ;
#60 = EDGE_LOOP ( 'NONE', ( #15, #194, #157, #176 ) ) ;
#61 =( LENGTH_UNIT ( ) NAMED_UNIT ( * ) SI_UNIT ( .MILLI., .METRE. ) );
#62 = EDGE_LOOP ( 'NONE', ( #177, #236, #133, #250 ) ) ;
#63 = ORIENTED_EDGE ( 'NONE', *, *, #47, .T. ) ;
#64 = COORDINATED_UNIVERSAL_TIME_OFFSET ( 1, 0, .AHEAD. ) ;
#65 = PERSON_AND_ORGANIZATION_ROLE ( 'design_supplier' ) ;
#66 = PRODUCT_RELATED_PRODUCT_CATEGORY ( 'detail', '', ( #211 ) ) ;
#67 = ADVANCED_FACE ( 'NONE', ( #220 ), #222, .T. ) ;
#68 = DIRECTION ( 'NONE',  ( 1.000000000000000000, 0.000000000000000000, 0.000000000000000000 ) ) ;
#69 = CARTESIAN_POINT ( 'NONE',  ( 0.000000000000000000, 0.000000000000000000, 3.000000000000000000 ) ) ;
#70 = EDGE_CURVE ( 'NONE', #75, #137, #104, .T. ) ;
#71 = DIRECTION ( 'NONE',  ( -0.000000000000000000, -0.000000000000000000, -1.000000000000000000 ) ) ;
#72 = DATE_AND_TIME ( #169, #4 ) ;
#73 = LINE ( 'NONE', #147, #192 ) ;
#74 = CARTESIAN_POINT ( 'NONE',  ( -2.250000000000000000, 0.000000000000000000, 3.000000000000000000 ) ) ;
#75 = VERTEX_POINT ( 'NONE', #202 ) ;
#76 = PERSON_AND_ORGANIZATION_ROLE ( 'creator' ) ;
#77 = FACE_OUTER_BOUND ( 'NONE', #151, .T. ) ;
#78 = APPROVAL_STATUS ( 'not_yet_approved' ) ;
#79 = DIRECTION ( 'NONE',  ( 0.000000000000000000, 0.000000000000000000, 1.000000000000000000 ) ) ;
#80 = ORIENTED_EDGE ( 'NONE', *, *, #19, .T. ) ;
#81 = PERSON ( 'NEURÈENÝ', 'NEURÈENÝ', 'NEURÈENÝ', ('NEURÈENÝ'), ('NEURÈENÝ'), ('NEURÈENÝ') ) ;
#82 = CARTESIAN_POINT ( 'NONE',  ( 2.250000000000000000, 2.755455298081544285E-16, 160.0000000000000000 ) ) ;
#83 = APPROVAL_STATUS ( 'not_yet_approved' ) ;
#84 = DIRECTION ( 'NONE',  ( 1.000000000000000000, 0.000000000000000000, 0.000000000000000000 ) ) ;
#85 = PERSON_AND_ORGANIZATION_ROLE ( 'classification_officer' ) ;
#86 = AXIS2_PLACEMENT_3D ( 'NONE', #148, #107, #28 ) ;
#87 = PLANE ( 'NONE',  #200 ) ;
#88 = CARTESIAN_POINT ( 'NONE',  ( -2.250000000000000000, 0.000000000000000000, 160.0000000000000000 ) ) ;
#89 = CYLINDRICAL_SURFACE ( 'NONE', #159, 2.250000000000000000 ) ;
#90 = CARTESIAN_POINT ( 'NONE',  ( -4.000000000000000000, 0.000000000000000000, 0.000000000000000000 ) ) ;
#91 = APPROVAL_PERSON_ORGANIZATION ( #16, #219, #175 ) ;
#92 = DIRECTION ( 'NONE',  ( 1.000000000000000000, 0.000000000000000000, 0.000000000000000000 ) ) ;
#93 = VERTEX_POINT ( 'NONE', #21 ) ;
#94 = DIRECTION ( 'NONE',  ( -1.000000000000000000, 0.000000000000000000, 0.000000000000000000 ) ) ;
#95 = APPROVAL_PERSON_ORGANIZATION ( #121, #189, #22 ) ;
#96 = PERSON_AND_ORGANIZATION ( #81, #116 ) ;
#97 = ADVANCED_FACE ( 'NONE', ( #182 ), #87, .F. ) ;
#98 = EDGE_LOOP ( 'NONE', ( #112, #59 ) ) ;
#99 = ORIENTED_EDGE ( 'NONE', *, *, #53, .F. ) ;
#100 = ADVANCED_FACE ( 'NONE', ( #244 ), #89, .T. ) ;
#101 = VERTEX_POINT ( 'NONE', #74 ) ;
#102 = CARTESIAN_POINT ( 'NONE',  ( 0.000000000000000000, 0.000000000000000000, 160.0000000000000000 ) ) ;
#103 = DIRECTION ( 'NONE',  ( -0.000000000000000000, -0.000000000000000000, -1.000000000000000000 ) ) ;
#104 = CIRCLE ( 'NONE', #172, 4.000000000000000000 ) ;
#105 = CARTESIAN_POINT ( 'NONE',  ( 2.250000000000000000, 2.755455298081544285E-16, 3.000000000000000000 ) ) ;
#106 = FACE_OUTER_BOUND ( 'NONE', #160, .T. ) ;
#107 = DIRECTION ( 'NONE',  ( 0.000000000000000000, 0.000000000000000000, 1.000000000000000000 ) ) ;
#108 = EDGE_CURVE ( 'NONE', #75, #93, #110, .T. ) ;
#109 = CARTESIAN_POINT ( 'NONE',  ( 0.000000000000000000, 0.000000000000000000, 3.000000000000000000 ) ) ;
#110 = LINE ( 'NONE', #149, #234 ) ;
#111 = DATE_AND_TIME ( #32, #152 ) ;
#112 = ORIENTED_EDGE ( 'NONE', *, *, #141, .F. ) ;
#113 = AXIS2_PLACEMENT_3D ( 'NONE', #23, #238, #68 ) ;
#114 = PERSON_AND_ORGANIZATION_ROLE ( 'design_owner' ) ;
#115 = ADVANCED_FACE ( 'NONE', ( #146 ), #191, .T. ) ;
#116 = ORGANIZATION ( 'NEURÈENÝ', 'NEURÈENÝ', '' ) ;
#117 = APPROVAL_DATE_TIME ( #232, #208 ) ;
#118 = ORIENTED_EDGE ( 'NONE', *, *, #70, .T. ) ;
#119 = DATE_AND_TIME ( #140, #41 ) ;
#120 = DIRECTION ( 'NONE',  ( 1.000000000000000000, 0.000000000000000000, 0.000000000000000000 ) ) ;
#121 = PERSON_AND_ORGANIZATION ( #81, #116 ) ;
#122 = DIRECTION ( 'NONE',  ( 0.000000000000000000, 0.000000000000000000, 1.000000000000000000 ) ) ;
#123 = APPLICATION_CONTEXT ( 'configuration controlled 3d designs of mechanical parts and assemblies' ) ;
#124 = DIRECTION ( 'NONE',  ( -0.000000000000000000, -0.000000000000000000, -1.000000000000000000 ) ) ;
#125 = CC_DESIGN_PERSON_AND_ORGANIZATION_ASSIGNMENT ( #204, #85, ( #181 ) ) ;
#126 = DIRECTION ( 'NONE',  ( -0.000000000000000000, -0.000000000000000000, -1.000000000000000000 ) ) ;
#127 = AXIS2_PLACEMENT_3D ( 'NONE', #109, #229, #36 ) ;
#128 = EDGE_CURVE ( 'NONE', #137, #131, #73, .T. ) ;
#129 =( NAMED_UNIT ( * ) SI_UNIT ( $, .STERADIAN. ) SOLID_ANGLE_UNIT ( ) );
#130 = MANIFOLD_SOLID_BREP ( 'Pøidat vysunutím3', #45 ) ;
#131 = VERTEX_POINT ( 'NONE', #90 ) ;
#132 = AXIS2_PLACEMENT_3D ( 'NONE', #227, #126, #209 ) ;
#133 = ORIENTED_EDGE ( 'NONE', *, *, #128, .T. ) ;
#134 = EDGE_LOOP ( 'NONE', ( #17, #188, #9, #37 ) ) ;
#135 = ORIENTED_EDGE ( 'NONE', *, *, #248, .F. ) ;
#136 = VECTOR ( 'NONE', #187, 1000.000000000000000 ) ;
#137 = VERTEX_POINT ( 'NONE', #207 ) ;
#138 = DATE_TIME_ROLE ( 'classification_date' ) ;
#139 = DIRECTION ( 'NONE',  ( -0.000000000000000000, -0.000000000000000000, -1.000000000000000000 ) ) ;
#140 = CALENDAR_DATE ( 2023, 12, 2 ) ;
#141 = EDGE_CURVE ( 'NONE', #131, #93, #235, .T. ) ;
#142 = CALENDAR_DATE ( 2023, 12, 2 ) ;
#143 = AXIS2_PLACEMENT_3D ( 'NONE', #38, #154, #254 ) ;
#144 = VECTOR ( 'NONE', #139, 1000.000000000000000 ) ;
#145 = ADVANCED_FACE ( 'NONE', ( #106 ), #150, .T. ) ;
#146 = FACE_OUTER_BOUND ( 'NONE', #62, .T. ) ;
#147 = CARTESIAN_POINT ( 'NONE',  ( -4.000000000000000000, 0.000000000000000000, 3.000000000000000000 ) ) ;
#148 = CARTESIAN_POINT ( 'NONE',  ( 0.000000000000000000, 0.000000000000000000, 160.0000000000000000 ) ) ;
#149 = CARTESIAN_POINT ( 'NONE',  ( 4.000000000000000000, 4.898587196589412829E-16, 3.000000000000000000 ) ) ;
#150 = PLANE ( 'NONE',  #7 ) ;
#151 = EDGE_LOOP ( 'NONE', ( #63, #118 ) ) ;
#152 = LOCAL_TIME ( 12, 53, 26.00000000000000000, #215 ) ;
#153 = ADVANCED_FACE ( 'NONE', ( #205 ), #51, .T. ) ;
#154 = DIRECTION ( 'NONE',  ( 0.000000000000000000, 0.000000000000000000, 1.000000000000000000 ) ) ;
#155 = PLANE ( 'NONE',  #40 ) ;
#156 = CALENDAR_DATE ( 2023, 12, 2 ) ;
#157 = ORIENTED_EDGE ( 'NONE', *, *, #233, .T. ) ;
#158 = PERSON_AND_ORGANIZATION ( #81, #116 ) ;
#159 = AXIS2_PLACEMENT_3D ( 'NONE', #31, #242, #94 ) ;
#160 = EDGE_LOOP ( 'NONE', ( #42, #58 ) ) ;
#161 = PERSON_AND_ORGANIZATION ( #81, #116 ) ;
#162 = DIRECTION ( 'NONE',  ( 1.000000000000000000, 0.000000000000000000, 0.000000000000000000 ) ) ;
#163 = CC_DESIGN_PERSON_AND_ORGANIZATION_ASSIGNMENT ( #158, #198, ( #1 ) ) ;
#164 = CC_DESIGN_APPROVAL ( #219, ( #226 ) ) ;
#165 = DIRECTION ( 'NONE',  ( -1.000000000000000000, 0.000000000000000000, 0.000000000000000000 ) ) ;
#166 = CARTESIAN_POINT ( 'NONE',  ( 0.000000000000000000, 0.000000000000000000, 3.000000000000000000 ) ) ;
#167 = CIRCLE ( 'NONE', #127, 2.250000000000000000 ) ;
#168 = CARTESIAN_POINT ( 'NONE',  ( 0.000000000000000000, 0.000000000000000000, 0.000000000000000000 ) ) ;
#169 = CALENDAR_DATE ( 2023, 12, 2 ) ;
#170 = DIRECTION ( 'NONE',  ( 1.000000000000000000, 0.000000000000000000, -0.000000000000000000 ) ) ;
#171 = DIRECTION ( 'NONE',  ( 0.000000000000000000, 0.000000000000000000, 1.000000000000000000 ) ) ;
#172 = AXIS2_PLACEMENT_3D ( 'NONE', #3, #241, #120 ) ;
#173 = DIRECTION ( 'NONE',  ( -0.000000000000000000, -0.000000000000000000, -1.000000000000000000 ) ) ;
#174 = CC_DESIGN_DATE_AND_TIME_ASSIGNMENT ( #72, #29, ( #226 ) ) ;
#175 = APPROVAL_ROLE ( '' ) ;
#176 = ORIENTED_EDGE ( 'NONE', *, *, #128, .F. ) ;
#177 = ORIENTED_EDGE ( 'NONE', *, *, #108, .F. ) ;
#178 = EDGE_LOOP ( 'NONE', ( #18, #217, #80, #216 ) ) ;
#179 = EDGE_CURVE ( 'NONE', #218, #39, #35, .T. ) ;
#180 = DIRECTION ( 'NONE',  ( 1.000000000000000000, 0.000000000000000000, -0.000000000000000000 ) ) ;
#181 = SECURITY_CLASSIFICATION ( '', '', #240 ) ;
#182 = FACE_OUTER_BOUND ( 'NONE', #98, .T. ) ;
#183 = LOCAL_TIME ( 12, 53, 26.00000000000000000, #206 ) ;
#184 = LINE ( 'NONE', #88, #144 ) ;
#185 = CARTESIAN_POINT ( 'NONE',  ( 0.000000000000000000, 0.000000000000000000, 0.000000000000000000 ) ) ;
#186 = CIRCLE ( 'NONE', #113, 4.000000000000000000 ) ;
#187 = DIRECTION ( 'NONE',  ( -0.000000000000000000, -0.000000000000000000, -1.000000000000000000 ) ) ;
#188 = ORIENTED_EDGE ( 'NONE', *, *, #196, .T. ) ;
#189 = APPROVAL ( #83, 'NEURÈENÝ' ) ;
#190 = PERSON_AND_ORGANIZATION ( #81, #116 ) ;
#191 = CYLINDRICAL_SURFACE ( 'NONE', #223, 4.000000000000000000 ) ;
#192 = VECTOR ( 'NONE', #124, 1000.000000000000000 ) ;
#193 = LOCAL_TIME ( 12, 53, 26.00000000000000000, #203 ) ;
#194 = ORIENTED_EDGE ( 'NONE', *, *, #108, .T. ) ;
#195 = APPLICATION_PROTOCOL_DEFINITION ( 'international standard', 'config_control_design', 1994, #245 ) ;
#196 = EDGE_CURVE ( 'NONE', #39, #12, #225, .T. ) ;
#197 = COORDINATED_UNIVERSAL_TIME_OFFSET ( 1, 0, .AHEAD. ) ;
#198 = PERSON_AND_ORGANIZATION_ROLE ( 'creator' ) ;
#199 = SHAPE_DEFINITION_REPRESENTATION ( #26, #2 ) ;
#200 = AXIS2_PLACEMENT_3D ( 'NONE', #185, #171, #5 ) ;
#201 = CC_DESIGN_APPROVAL ( #208, ( #1 ) ) ;
#202 = CARTESIAN_POINT ( 'NONE',  ( 4.000000000000000000, 4.898587196589412829E-16, 3.000000000000000000 ) ) ;
#203 = COORDINATED_UNIVERSAL_TIME_OFFSET ( 1, 0, .AHEAD. ) ;
#204 = PERSON_AND_ORGANIZATION ( #81, #116 ) ;
#205 = FACE_OUTER_BOUND ( 'NONE', #60, .T. ) ;
#206 = COORDINATED_UNIVERSAL_TIME_OFFSET ( 1, 0, .AHEAD. ) ;
#207 = CARTESIAN_POINT ( 'NONE',  ( -4.000000000000000000, 0.000000000000000000, 3.000000000000000000 ) ) ;
#208 = APPROVAL ( #10, 'NEURÈENÝ' ) ;
#209 = DIRECTION ( 'NONE',  ( -1.000000000000000000, 0.000000000000000000, 0.000000000000000000 ) ) ;
#210 = CIRCLE ( 'NONE', #57, 2.250000000000000000 ) ;
#211 = PRODUCT ( 'a9c7', 'a9c7', '', ( #13 ) ) ;
#212 = DIRECTION ( 'NONE',  ( 0.000000000000000000, 0.000000000000000000, 1.000000000000000000 ) ) ;
#213 = CC_DESIGN_PERSON_AND_ORGANIZATION_ASSIGNMENT ( #96, #114, ( #211 ) ) ;
#214 = APPROVAL_ROLE ( '' ) ;
#215 = COORDINATED_UNIVERSAL_TIME_OFFSET ( 1, 0, .AHEAD. ) ;
#216 = ORIENTED_EDGE ( 'NONE', *, *, #53, .T. ) ;
#217 = ORIENTED_EDGE ( 'NONE', *, *, #179, .F. ) ;
#218 = VERTEX_POINT ( 'NONE', #54 ) ;
#219 = APPROVAL ( #78, 'NEURÈENÝ' ) ;
#220 = FACE_OUTER_BOUND ( 'NONE', #134, .T. ) ;
#221 = DIRECTION ( 'NONE',  ( 0.000000000000000000, 0.000000000000000000, 1.000000000000000000 ) ) ;
#222 = CYLINDRICAL_SURFACE ( 'NONE', #24, 2.250000000000000000 ) ;
#223 = AXIS2_PLACEMENT_3D ( 'NONE', #69, #173, #246 ) ;
#224 = APPROVAL_PERSON_ORGANIZATION ( #190, #208, #214 ) ;
#225 = LINE ( 'NONE', #50, #136 ) ;
#226 = PRODUCT_DEFINITION ( 'NEZNÁMÝ', '', #1, #34 ) ;
#227 = CARTESIAN_POINT ( 'NONE',  ( 0.000000000000000000, 0.000000000000000000, 3.000000000000000000 ) ) ;
#228 =( NAMED_UNIT ( * ) PLANE_ANGLE_UNIT ( ) SI_UNIT ( $, .RADIAN. ) );
#229 = DIRECTION ( 'NONE',  ( 0.000000000000000000, 0.000000000000000000, 1.000000000000000000 ) ) ;
#230 =( GEOMETRIC_REPRESENTATION_CONTEXT ( 3 ) GLOBAL_UNCERTAINTY_ASSIGNED_CONTEXT ( ( #231 ) ) GLOBAL_UNIT_ASSIGNED_CONTEXT ( ( #61, #228, #129 ) ) REPRESENTATION_CONTEXT ( 'NONE', 'WORKASPACE' ) );
#231 = UNCERTAINTY_MEASURE_WITH_UNIT (LENGTH_MEASURE( 1.000000000000000082E-05 ), #61, 'distance_accuracy_value', 'NONE');
#232 = DATE_AND_TIME ( #156, #183 ) ;
#233 = EDGE_CURVE ( 'NONE', #93, #131, #20, .T. ) ;
#234 = VECTOR ( 'NONE', #71, 1000.000000000000000 ) ;
#235 = CIRCLE ( 'NONE', #55, 4.000000000000000000 ) ;
#236 = ORIENTED_EDGE ( 'NONE', *, *, #47, .F. ) ;
#237 = DATE_AND_TIME ( #142, #193 ) ;
#238 = DIRECTION ( 'NONE',  ( 0.000000000000000000, 0.000000000000000000, 1.000000000000000000 ) ) ;
#239 = CC_DESIGN_PERSON_AND_ORGANIZATION_ASSIGNMENT ( #14, #76, ( #226 ) ) ;
#240 = SECURITY_CLASSIFICATION_LEVEL ( 'unclassified' ) ;
#241 = DIRECTION ( 'NONE',  ( 0.000000000000000000, 0.000000000000000000, 1.000000000000000000 ) ) ;
#242 = DIRECTION ( 'NONE',  ( -0.000000000000000000, -0.000000000000000000, -1.000000000000000000 ) ) ;
#243 = CC_DESIGN_DATE_AND_TIME_ASSIGNMENT ( #119, #138, ( #181 ) ) ;
#244 = FACE_OUTER_BOUND ( 'NONE', #178, .T. ) ;
#245 = APPLICATION_CONTEXT ( 'configuration controlled 3d designs of mechanical parts and assemblies' ) ;
#246 = DIRECTION ( 'NONE',  ( -1.000000000000000000, 0.000000000000000000, 0.000000000000000000 ) ) ;
#247 = EDGE_LOOP ( 'NONE', ( #99, #135 ) ) ;
#248 = EDGE_CURVE ( 'NONE', #12, #101, #167, .T. ) ;
#249 = APPROVAL_DATE_TIME ( #111, #219 ) ;
#250 = ORIENTED_EDGE ( 'NONE', *, *, #141, .T. ) ;
#251 = CC_DESIGN_PERSON_AND_ORGANIZATION_ASSIGNMENT ( #161, #65, ( #1 ) ) ;
#252 = CC_DESIGN_SECURITY_CLASSIFICATION ( #181, ( #1 ) ) ;
#253 = FACE_BOUND ( 'NONE', #247, .T. ) ;
#254 = DIRECTION ( 'NONE',  ( 1.000000000000000000, 0.000000000000000000, 0.000000000000000000 ) ) ;
#255 = CARTESIAN_POINT ( 'NONE',  ( 0.000000000000000000, 0.000000000000000000, 3.000000000000000000 ) ) ;
ENDSEC;
END-ISO-10303-21;
