ISO-10303-21;
HEADER;
FILE_DESCRIPTION (( 'STEP AP203' ),
    '1' );
FILE_NAME ('9ff1.STEP',
    '2022-07-07T12:29:23',
    ( '' ),
    ( '' ),
    'SwSTEP 2.0',
    'SolidWorks 2019',
    '' );
FILE_SCHEMA (( 'CONFIG_CONTROL_DESIGN' ));
ENDSEC;

DATA;
#1 = ORIENTED_EDGE ( 'NONE', *, *, #258, .T. ) ;
#2 = VERTEX_POINT ( 'NONE', #221 ) ;
#3 = AXIS2_PLACEMENT_3D ( 'NONE', #61, #270, #77 ) ;
#4 = CC_DESIGN_SECURITY_CLASSIFICATION ( #130, ( #120 ) ) ;
#5 = EDGE_LOOP ( 'NONE', ( #121, #67 ) ) ;
#6 = EDGE_LOOP ( 'NONE', ( #188, #98, #13, #218 ) ) ;
#7 = FACE_OUTER_BOUND ( 'NONE', #229, .T. ) ;
#8 = CC_DESIGN_PERSON_AND_ORGANIZATION_ASSIGNMENT ( #136, #165, ( #148 ) ) ;
#9 = VERTEX_POINT ( 'NONE', #34 ) ;
#10 = AXIS2_PLACEMENT_3D ( 'NONE', #202, #81, #177 ) ;
#11 = CIRCLE ( 'NONE', #3, 4.699999999999999289 ) ;
#12 = DIRECTION ( 'NONE',  ( -1.000000000000000000, 0.000000000000000000, 0.000000000000000000 ) ) ;
#13 = ORIENTED_EDGE ( 'NONE', *, *, #36, .T. ) ;
#14 = DIRECTION ( 'NONE',  ( 1.000000000000000000, 0.000000000000000000, 0.000000000000000000 ) ) ;
#15 = ORIENTED_EDGE ( 'NONE', *, *, #26, .T. ) ;
#16 = CARTESIAN_POINT ( 'NONE',  ( 0.000000000000000000, 0.000000000000000000, 5.000000000000000000 ) ) ;
#17 = CARTESIAN_POINT ( 'NONE',  ( 7.000000000000000000, 8.572527594031473190E-16, 5.000000000000000000 ) ) ;
#18 = CALENDAR_DATE ( 2022, 7, 7 ) ;
#19 = DATE_AND_TIME ( #62, #277 ) ;
#20 = EDGE_CURVE ( 'NONE', #51, #228, #293, .T. ) ;
#21 = MECHANICAL_CONTEXT ( 'NONE', #84, 'mechanical' ) ;
#22 = CIRCLE ( 'NONE', #198, 4.500000000000000000 ) ;
#23 = APPROVAL_DATE_TIME ( #167, #149 ) ;
#24 = CIRCLE ( 'NONE', #126, 4.500000000000000000 ) ;
#25 = VERTEX_POINT ( 'NONE', #269 ) ;
#26 = EDGE_CURVE ( 'NONE', #228, #9, #107, .T. ) ;
#27 = ORIENTED_EDGE ( 'NONE', *, *, #284, .T. ) ;
#28 = EDGE_LOOP ( 'NONE', ( #265, #93, #296, #245 ) ) ;
#29 = DIRECTION ( 'NONE',  ( 1.000000000000000000, 0.000000000000000000, 0.000000000000000000 ) ) ;
#30 = ADVANCED_FACE ( 'NONE', ( #101 ), #95, .F. ) ;
#31 = FACE_OUTER_BOUND ( 'NONE', #6, .T. ) ;
#32 = MANIFOLD_SOLID_BREP ( 'Zaoblit1', #86 ) ;
#33 = LINE ( 'NONE', #189, #252 ) ;
#34 = CARTESIAN_POINT ( 'NONE',  ( 4.699999999999999289, 0.000000000000000000, 4.999999999999991118 ) ) ;
#35 = EDGE_LOOP ( 'NONE', ( #287, #286 ) ) ;
#36 = EDGE_CURVE ( 'NONE', #228, #51, #24, .T. ) ;
#37 = CARTESIAN_POINT ( 'NONE',  ( -4.500000000000000000, 0.000000000000000000, 405.0000000000000000 ) ) ;
#38 = FACE_BOUND ( 'NONE', #5, .T. ) ;
#39 = DIRECTION ( 'NONE',  ( -0.000000000000000000, -0.000000000000000000, -1.000000000000000000 ) ) ;
#40 = PERSON_AND_ORGANIZATION ( #212, #204 ) ;
#41 = CALENDAR_DATE ( 2022, 7, 7 ) ;
#42 = APPLICATION_PROTOCOL_DEFINITION ( 'international standard', 'config_control_design', 1994, #84 ) ;
#43 = APPROVAL_DATE_TIME ( #303, #290 ) ;
#44 = CIRCLE ( 'NONE', #150, 7.000000000000000000 ) ;
#45 = AXIS2_PLACEMENT_3D ( 'NONE', #76, #180, #54 ) ;
#46 = ADVANCED_FACE ( 'NONE', ( #153 ), #200, .T. ) ;
#47 = CALENDAR_DATE ( 2022, 7, 7 ) ;
#48 = ORIENTED_EDGE ( 'NONE', *, *, #264, .T. ) ;
#49 = LOCAL_TIME ( 14, 29, 23.00000000000000000, #282 ) ;
#50 = EDGE_CURVE ( 'NONE', #132, #228, #60, .T. ) ;
#51 = VERTEX_POINT ( 'NONE', #52 ) ;
#52 = CARTESIAN_POINT ( 'NONE',  ( -4.500000000000000000, 0.000000000000000000, 5.199999999999982414 ) ) ;
#53 = LINE ( 'NONE', #108, #172 ) ;
#54 = DIRECTION ( 'NONE',  ( -1.000000000000000000, 0.000000000000000000, 0.000000000000000000 ) ) ;
#55 = CARTESIAN_POINT ( 'NONE',  ( 0.000000000000000000, 0.000000000000000000, 0.000000000000000000 ) ) ;
#56 = CARTESIAN_POINT ( 'NONE',  ( 0.000000000000000000, 0.000000000000000000, 5.199999999999982414 ) ) ;
#57 = VECTOR ( 'NONE', #161, 1000.000000000000000 ) ;
#58 = DIRECTION ( 'NONE',  ( 1.224646799147353207E-16, 1.000000000000000000, -0.000000000000000000 ) ) ;
#59 = ADVANCED_FACE ( 'NONE', ( #273 ), #295, .F. ) ;
#60 = LINE ( 'NONE', #159, #69 ) ;
#61 = CARTESIAN_POINT ( 'NONE',  ( 0.000000000000000000, 0.000000000000000000, 5.000000000000000000 ) ) ;
#62 = CALENDAR_DATE ( 2022, 7, 7 ) ;
#63 = EDGE_CURVE ( 'NONE', #103, #2, #44, .T. ) ;
#64 = CIRCLE ( 'NONE', #158, 7.000000000000000000 ) ;
#65 = PERSON_AND_ORGANIZATION_ROLE ( 'classification_officer' ) ;
#66 = AXIS2_PLACEMENT_3D ( 'NONE', #184, #58, #250 ) ;
#67 = ORIENTED_EDGE ( 'NONE', *, *, #241, .T. ) ;
#68 = CC_DESIGN_PERSON_AND_ORGANIZATION_ASSIGNMENT ( #304, #305, ( #120 ) ) ;
#69 = VECTOR ( 'NONE', #73, 1000.000000000000000 ) ;
#70 = APPROVAL_PERSON_ORGANIZATION ( #114, #149, #87 ) ;
#71 = EDGE_LOOP ( 'NONE', ( #267, #1, #197, #117 ) ) ;
#72 = ADVANCED_FACE ( 'NONE', ( #31 ), #225, .T. ) ;
#73 = DIRECTION ( 'NONE',  ( -0.000000000000000000, -0.000000000000000000, -1.000000000000000000 ) ) ;
#74 = ORIENTED_EDGE ( 'NONE', *, *, #36, .F. ) ;
#75 = DIRECTION ( 'NONE',  ( -1.000000000000000000, 0.000000000000000000, 0.000000000000000000 ) ) ;
#76 = CARTESIAN_POINT ( 'NONE',  ( 0.000000000000000000, 0.000000000000000000, 405.0000000000000000 ) ) ;
#77 = DIRECTION ( 'NONE',  ( 1.000000000000000000, 0.000000000000000000, 0.000000000000000000 ) ) ;
#78 = DIRECTION ( 'NONE',  ( 0.000000000000000000, 0.000000000000000000, 1.000000000000000000 ) ) ;
#79 = DIRECTION ( 'NONE',  ( -0.000000000000000000, -0.000000000000000000, -1.000000000000000000 ) ) ;
#80 = AXIS2_PLACEMENT_3D ( 'NONE', #179, #82, #12 ) ;
#81 = DIRECTION ( 'NONE',  ( 0.000000000000000000, 0.000000000000000000, 1.000000000000000000 ) ) ;
#82 = DIRECTION ( 'NONE',  ( -0.000000000000000000, -0.000000000000000000, -1.000000000000000000 ) ) ;
#83 = FACE_OUTER_BOUND ( 'NONE', #71, .T. ) ;
#84 = APPLICATION_CONTEXT ( 'configuration controlled 3d designs of mechanical parts and assemblies' ) ;
#85 = SECURITY_CLASSIFICATION_LEVEL ( 'unclassified' ) ;
#86 = CLOSED_SHELL ( 'NONE', ( #192, #72, #201, #46, #109, #59, #230, #145, #30 ) ) ;
#87 = APPROVAL_ROLE ( '' ) ;
#88 = LOCAL_TIME ( 14, 29, 23.00000000000000000, #260 ) ;
#89 = DATE_TIME_ROLE ( 'classification_date' ) ;
#90 = EDGE_CURVE ( 'NONE', #25, #292, #262, .T. ) ;
#91 = CALENDAR_DATE ( 2022, 7, 7 ) ;
#92 = CARTESIAN_POINT ( 'NONE',  ( 0.000000000000000000, 0.000000000000000000, 0.000000000000000000 ) ) ;
#93 = ORIENTED_EDGE ( 'NONE', *, *, #222, .F. ) ;
#94 = AXIS2_PLACEMENT_3D ( 'NONE', #251, #129, #232 ) ;
#95 = TOROIDAL_SURFACE ( 'NONE', #10, 4.699999999999999289, 0.2000000000000000111 ) ;
#96 = APPROVAL_PERSON_ORGANIZATION ( #164, #219, #216 ) ;
#97 = CARTESIAN_POINT ( 'NONE',  ( 0.000000000000000000, 0.000000000000000000, 5.199999999999982414 ) ) ;
#98 = ORIENTED_EDGE ( 'NONE', *, *, #50, .T. ) ;
#99 = APPLICATION_CONTEXT ( 'configuration controlled 3d designs of mechanical parts and assemblies' ) ;
#100 = DIRECTION ( 'NONE',  ( 1.000000000000000000, 0.000000000000000000, -0.000000000000000000 ) ) ;
#101 = FACE_OUTER_BOUND ( 'NONE', #146, .T. ) ;
#102 = DIRECTION ( 'NONE',  ( 0.000000000000000000, 0.000000000000000000, 1.000000000000000000 ) ) ;
#103 = VERTEX_POINT ( 'NONE', #17 ) ;
#104 = CARTESIAN_POINT ( 'NONE',  ( 4.500000000000000000, 5.510910596163088569E-16, 5.199999999999982414 ) ) ;
#105 = DIRECTION ( 'NONE',  ( 0.000000000000000000, -1.000000000000000000, 0.000000000000000000 ) ) ;
#106 = DIRECTION ( 'NONE',  ( 1.000000000000000000, 0.000000000000000000, 0.000000000000000000 ) ) ;
#107 = CIRCLE ( 'NONE', #140, 0.1999999999999996503 ) ;
#108 = CARTESIAN_POINT ( 'NONE',  ( 7.000000000000000000, 8.572527594031473190E-16, 5.000000000000000000 ) ) ;
#109 = ADVANCED_FACE ( 'NONE', ( #38, #134 ), #162, .T. ) ;
#110 = APPROVAL_STATUS ( 'not_yet_approved' ) ;
#111 = APPROVAL_DATE_TIME ( #19, #219 ) ;
#112 = CIRCLE ( 'NONE', #119, 4.500000000000000000 ) ;
#113 = EDGE_CURVE ( 'NONE', #2, #292, #33, .T. ) ;
#114 = PERSON_AND_ORGANIZATION ( #212, #204 ) ;
#115 = PRODUCT_DEFINITION_SHAPE ( 'NONE', 'NONE',  #127 ) ;
#116 = EDGE_CURVE ( 'NONE', #132, #291, #112, .T. ) ;
#117 = ORIENTED_EDGE ( 'NONE', *, *, #113, .F. ) ;
#118 = ADVANCED_BREP_SHAPE_REPRESENTATION ( '9ff1', ( #32, #166 ), #169 ) ;
#119 = AXIS2_PLACEMENT_3D ( 'NONE', #125, #224, #29 ) ;
#120 = PRODUCT_DEFINITION_FORMATION_WITH_SPECIFIED_SOURCE ( 'LIBOVOLNÝ', '', #148, .NOT_KNOWN. ) ;
#121 = ORIENTED_EDGE ( 'NONE', *, *, #178, .T. ) ;
#122 = DIRECTION ( 'NONE',  ( 1.000000000000000000, 0.000000000000000000, 0.000000000000000000 ) ) ;
#123 = DIRECTION ( 'NONE',  ( 0.000000000000000000, 0.000000000000000000, 1.000000000000000000 ) ) ;
#124 = DIRECTION ( 'NONE',  ( 0.000000000000000000, 0.000000000000000000, -1.000000000000000000 ) ) ;
#125 = CARTESIAN_POINT ( 'NONE',  ( 0.000000000000000000, 0.000000000000000000, 405.0000000000000000 ) ) ;
#126 = AXIS2_PLACEMENT_3D ( 'NONE', #97, #78, #254 ) ;
#127 = PRODUCT_DEFINITION ( 'NEZNÁMÝ', '', #120, #210 ) ;
#128 = CIRCLE ( 'NONE', #299, 7.000000000000000000 ) ;
#129 = DIRECTION ( 'NONE',  ( 0.000000000000000000, 0.000000000000000000, 1.000000000000000000 ) ) ;
#130 = SECURITY_CLASSIFICATION ( '', '', #85 ) ;
#131 = CARTESIAN_POINT ( 'NONE',  ( 0.000000000000000000, 0.000000000000000000, 5.000000000000000000 ) ) ;
#132 = VERTEX_POINT ( 'NONE', #297 ) ;
#133 = CARTESIAN_POINT ( 'NONE',  ( -7.000000000000000000, 0.000000000000000000, 0.000000000000000000 ) ) ;
#134 = FACE_OUTER_BOUND ( 'NONE', #288, .T. ) ;
#135 = DIRECTION ( 'NONE',  ( 1.000000000000000000, 0.000000000000000000, 0.000000000000000000 ) ) ;
#136 = PERSON_AND_ORGANIZATION ( #212, #204 ) ;
#137 = PERSON_AND_ORGANIZATION ( #212, #204 ) ;
#138 = PERSON_AND_ORGANIZATION ( #212, #204 ) ;
#139 = CC_DESIGN_PERSON_AND_ORGANIZATION_ASSIGNMENT ( #138, #65, ( #130 ) ) ;
#140 = AXIS2_PLACEMENT_3D ( 'NONE', #205, #105, #124 ) ;
#141 = AXIS2_PLACEMENT_3D ( 'NONE', #163, #257, #100 ) ;
#142 = PERSON_AND_ORGANIZATION_ROLE ( 'design_supplier' ) ;
#143 = CC_DESIGN_APPROVAL ( #219, ( #130 ) ) ;
#144 = PERSON_AND_ORGANIZATION ( #212, #204 ) ;
#145 = ADVANCED_FACE ( 'NONE', ( #276 ), #281, .T. ) ;
#146 = EDGE_LOOP ( 'NONE', ( #199, #74, #15, #174 ) ) ;
#147 = ORIENTED_EDGE ( 'NONE', *, *, #50, .F. ) ;
#148 = PRODUCT ( '9ff1', '9ff1', '', ( #21 ) ) ;
#149 = APPROVAL ( #195, 'NEURÈENÝ' ) ;
#150 = AXIS2_PLACEMENT_3D ( 'NONE', #223, #155, #249 ) ;
#151 = CARTESIAN_POINT ( 'NONE',  ( 0.000000000000000000, 0.000000000000000000, 5.000000000000000000 ) ) ;
#152 = CARTESIAN_POINT ( 'NONE',  ( -4.500000000000000000, 0.000000000000000000, 405.0000000000000000 ) ) ;
#153 = FACE_OUTER_BOUND ( 'NONE', #28, .T. ) ;
#154 = DIRECTION ( 'NONE',  ( -0.000000000000000000, -0.000000000000000000, -1.000000000000000000 ) ) ;
#155 = DIRECTION ( 'NONE',  ( 0.000000000000000000, 0.000000000000000000, 1.000000000000000000 ) ) ;
#156 = TOROIDAL_SURFACE ( 'NONE', #187, 4.699999999999999289, 0.2000000000000000111 ) ;
#157 = DIRECTION ( 'NONE',  ( 0.000000000000000000, 0.000000000000000000, 1.000000000000000000 ) ) ;
#158 = AXIS2_PLACEMENT_3D ( 'NONE', #55, #157, #14 ) ;
#159 = CARTESIAN_POINT ( 'NONE',  ( 4.500000000000000000, 5.510910596163088569E-16, 405.0000000000000000 ) ) ;
#160 = LOCAL_TIME ( 14, 29, 23.00000000000000000, #191 ) ;
#161 = DIRECTION ( 'NONE',  ( -0.000000000000000000, -0.000000000000000000, -1.000000000000000000 ) ) ;
#162 = PLANE ( 'NONE',  #274 ) ;
#163 = CARTESIAN_POINT ( 'NONE',  ( 0.000000000000000000, 0.000000000000000000, 405.0000000000000000 ) ) ;
#164 = PERSON_AND_ORGANIZATION ( #212, #204 ) ;
#165 = PERSON_AND_ORGANIZATION_ROLE ( 'design_owner' ) ;
#166 = AXIS2_PLACEMENT_3D ( 'NONE', #92, #302, #236 ) ;
#167 = DATE_AND_TIME ( #41, #160 ) ;
#168 = DATE_AND_TIME ( #91, #49 ) ;
#169 =( GEOMETRIC_REPRESENTATION_CONTEXT ( 3 ) GLOBAL_UNCERTAINTY_ASSIGNED_CONTEXT ( ( #259 ) ) GLOBAL_UNIT_ASSIGNED_CONTEXT ( ( #181, #261, #283 ) ) REPRESENTATION_CONTEXT ( 'NONE', 'WORKASPACE' ) );
#170 = AXIS2_PLACEMENT_3D ( 'NONE', #226, #231, #75 ) ;
#171 = ORIENTED_EDGE ( 'NONE', *, *, #175, .T. ) ;
#172 = VECTOR ( 'NONE', #79, 1000.000000000000000 ) ;
#173 = LOCAL_TIME ( 14, 29, 23.00000000000000000, #234 ) ;
#174 = ORIENTED_EDGE ( 'NONE', *, *, #241, .F. ) ;
#175 = EDGE_CURVE ( 'NONE', #291, #51, #248, .T. ) ;
#176 = CARTESIAN_POINT ( 'NONE',  ( 0.000000000000000000, 0.000000000000000000, 0.000000000000000000 ) ) ;
#177 = DIRECTION ( 'NONE',  ( 1.000000000000000000, 0.000000000000000000, 0.000000000000000000 ) ) ;
#178 = EDGE_CURVE ( 'NONE', #9, #208, #244, .T. ) ;
#179 = CARTESIAN_POINT ( 'NONE',  ( 0.000000000000000000, 0.000000000000000000, 405.0000000000000000 ) ) ;
#180 = DIRECTION ( 'NONE',  ( -0.000000000000000000, -0.000000000000000000, -1.000000000000000000 ) ) ;
#181 =( LENGTH_UNIT ( ) NAMED_UNIT ( * ) SI_UNIT ( .MILLI., .METRE. ) );
#182 = ORIENTED_EDGE ( 'NONE', *, *, #26, .F. ) ;
#183 = AXIS2_PLACEMENT_3D ( 'NONE', #131, #154, #135 ) ;
#184 = CARTESIAN_POINT ( 'NONE',  ( -4.699999999999999289, 5.755839955992558669E-16, 5.199999999999982414 ) ) ;
#185 = PRODUCT_RELATED_PRODUCT_CATEGORY ( 'detail', '', ( #148 ) ) ;
#186 = AXIS2_PLACEMENT_3D ( 'NONE', #176, #268, #247 ) ;
#187 = AXIS2_PLACEMENT_3D ( 'NONE', #211, #209, #106 ) ;
#188 = ORIENTED_EDGE ( 'NONE', *, *, #116, .F. ) ;
#189 = CARTESIAN_POINT ( 'NONE',  ( -7.000000000000000000, 0.000000000000000000, 5.000000000000000000 ) ) ;
#190 = CARTESIAN_POINT ( 'NONE',  ( -4.699999999999999289, 5.755839955992558669E-16, 4.999999999999991118 ) ) ;
#191 = COORDINATED_UNIVERSAL_TIME_OFFSET ( 1, 0, .AHEAD. ) ;
#192 = ADVANCED_FACE ( 'NONE', ( #233 ), #156, .F. ) ;
#193 = SHAPE_DEFINITION_REPRESENTATION ( #115, #118 ) ;
#194 = COORDINATED_UNIVERSAL_TIME_OFFSET ( 1, 0, .AHEAD. ) ;
#195 = APPROVAL_STATUS ( 'not_yet_approved' ) ;
#196 = ORIENTED_EDGE ( 'NONE', *, *, #20, .F. ) ;
#197 = ORIENTED_EDGE ( 'NONE', *, *, #90, .T. ) ;
#198 = AXIS2_PLACEMENT_3D ( 'NONE', #279, #102, #255 ) ;
#199 = ORIENTED_EDGE ( 'NONE', *, *, #264, .F. ) ;
#200 = CYLINDRICAL_SURFACE ( 'NONE', #275, 7.000000000000000000 ) ;
#201 = ADVANCED_FACE ( 'NONE', ( #83 ), #294, .T. ) ;
#202 = CARTESIAN_POINT ( 'NONE',  ( 0.000000000000000000, 0.000000000000000000, 5.199999999999982414 ) ) ;
#203 = DIRECTION ( 'NONE',  ( 1.000000000000000000, 0.000000000000000000, -0.000000000000000000 ) ) ;
#204 = ORGANIZATION ( 'NEURÈENÝ', 'NEURÈENÝ', '' ) ;
#205 = CARTESIAN_POINT ( 'NONE',  ( 4.699999999999999289, 0.000000000000000000, 5.199999999999982414 ) ) ;
#206 = EDGE_LOOP ( 'NONE', ( #196, #48, #243, #182 ) ) ;
#207 = CYLINDRICAL_SURFACE ( 'NONE', #80, 4.500000000000000000 ) ;
#208 = VERTEX_POINT ( 'NONE', #190 ) ;
#209 = DIRECTION ( 'NONE',  ( 0.000000000000000000, 0.000000000000000000, 1.000000000000000000 ) ) ;
#210 = DESIGN_CONTEXT ( 'detailed design', #99, 'design' ) ;
#211 = CARTESIAN_POINT ( 'NONE',  ( 0.000000000000000000, 0.000000000000000000, 5.199999999999982414 ) ) ;
#212 = PERSON ( 'NEURÈENÝ', 'NEURÈENÝ', 'NEURÈENÝ', ('NEURÈENÝ'), ('NEURÈENÝ'), ('NEURÈENÝ') ) ;
#213 = PERSON_AND_ORGANIZATION_ROLE ( 'creator' ) ;
#214 = APPROVAL_ROLE ( '' ) ;
#215 = EDGE_CURVE ( 'NONE', #292, #25, #64, .T. ) ;
#216 = APPROVAL_ROLE ( '' ) ;
#217 = ORIENTED_EDGE ( 'NONE', *, *, #284, .F. ) ;
#218 = ORIENTED_EDGE ( 'NONE', *, *, #175, .F. ) ;
#219 = APPROVAL ( #110, 'NEURÈENÝ' ) ;
#220 = ORIENTED_EDGE ( 'NONE', *, *, #116, .T. ) ;
#221 = CARTESIAN_POINT ( 'NONE',  ( -7.000000000000000000, 0.000000000000000000, 5.000000000000000000 ) ) ;
#222 = EDGE_CURVE ( 'NONE', #2, #103, #128, .T. ) ;
#223 = CARTESIAN_POINT ( 'NONE',  ( 0.000000000000000000, 0.000000000000000000, 5.000000000000000000 ) ) ;
#224 = DIRECTION ( 'NONE',  ( 0.000000000000000000, 0.000000000000000000, 1.000000000000000000 ) ) ;
#225 = CYLINDRICAL_SURFACE ( 'NONE', #45, 4.500000000000000000 ) ;
#226 = CARTESIAN_POINT ( 'NONE',  ( 0.000000000000000000, 0.000000000000000000, 5.000000000000000000 ) ) ;
#227 = APPROVAL_PERSON_ORGANIZATION ( #40, #290, #214 ) ;
#228 = VERTEX_POINT ( 'NONE', #104 ) ;
#229 = EDGE_LOOP ( 'NONE', ( #147, #217, #171, #263 ) ) ;
#230 = ADVANCED_FACE ( 'NONE', ( #7 ), #207, .T. ) ;
#231 = DIRECTION ( 'NONE',  ( -0.000000000000000000, -0.000000000000000000, -1.000000000000000000 ) ) ;
#232 = DIRECTION ( 'NONE',  ( 1.000000000000000000, 0.000000000000000000, 0.000000000000000000 ) ) ;
#233 = FACE_OUTER_BOUND ( 'NONE', #206, .T. ) ;
#234 = COORDINATED_UNIVERSAL_TIME_OFFSET ( 1, 0, .AHEAD. ) ;
#235 = DATE_TIME_ROLE ( 'creation_date' ) ;
#236 = DIRECTION ( 'NONE',  ( 1.000000000000000000, 0.000000000000000000, 0.000000000000000000 ) ) ;
#237 = CC_DESIGN_PERSON_AND_ORGANIZATION_ASSIGNMENT ( #137, #213, ( #127 ) ) ;
#238 = DATE_AND_TIME ( #18, #173 ) ;
#239 = ORIENTED_EDGE ( 'NONE', *, *, #63, .T. ) ;
#240 = CC_DESIGN_APPROVAL ( #149, ( #127 ) ) ;
#241 = EDGE_CURVE ( 'NONE', #208, #9, #11, .T. ) ;
#242 = ORIENTED_EDGE ( 'NONE', *, *, #222, .T. ) ;
#243 = ORIENTED_EDGE ( 'NONE', *, *, #178, .F. ) ;
#244 = CIRCLE ( 'NONE', #183, 4.699999999999999289 ) ;
#245 = ORIENTED_EDGE ( 'NONE', *, *, #215, .T. ) ;
#246 = AXIS2_PLACEMENT_3D ( 'NONE', #56, #298, #122 ) ;
#247 = DIRECTION ( 'NONE',  ( 1.000000000000000000, 0.000000000000000000, -0.000000000000000000 ) ) ;
#248 = LINE ( 'NONE', #152, #57 ) ;
#249 = DIRECTION ( 'NONE',  ( 1.000000000000000000, 0.000000000000000000, 0.000000000000000000 ) ) ;
#250 = DIRECTION ( 'NONE',  ( -1.000000000000000000, 1.224646799147353454E-16, 0.000000000000000000 ) ) ;
#251 = CARTESIAN_POINT ( 'NONE',  ( 0.000000000000000000, 0.000000000000000000, 0.000000000000000000 ) ) ;
#252 = VECTOR ( 'NONE', #39, 1000.000000000000000 ) ;
#253 = CC_DESIGN_DATE_AND_TIME_ASSIGNMENT ( #168, #235, ( #127 ) ) ;
#254 = DIRECTION ( 'NONE',  ( 1.000000000000000000, 0.000000000000000000, 0.000000000000000000 ) ) ;
#255 = DIRECTION ( 'NONE',  ( 1.000000000000000000, 0.000000000000000000, 0.000000000000000000 ) ) ;
#256 = CARTESIAN_POINT ( 'NONE',  ( 0.000000000000000000, 0.000000000000000000, 5.000000000000000000 ) ) ;
#257 = DIRECTION ( 'NONE',  ( 0.000000000000000000, 0.000000000000000000, 1.000000000000000000 ) ) ;
#258 = EDGE_CURVE ( 'NONE', #103, #25, #53, .T. ) ;
#259 = UNCERTAINTY_MEASURE_WITH_UNIT (LENGTH_MEASURE( 1.000000000000000082E-05 ), #181, 'distance_accuracy_value', 'NONE');
#260 = COORDINATED_UNIVERSAL_TIME_OFFSET ( 1, 0, .AHEAD. ) ;
#261 =( NAMED_UNIT ( * ) PLANE_ANGLE_UNIT ( ) SI_UNIT ( $, .RADIAN. ) );
#262 = CIRCLE ( 'NONE', #94, 7.000000000000000000 ) ;
#263 = ORIENTED_EDGE ( 'NONE', *, *, #20, .T. ) ;
#264 = EDGE_CURVE ( 'NONE', #51, #208, #289, .T. ) ;
#265 = ORIENTED_EDGE ( 'NONE', *, *, #258, .F. ) ;
#266 = CC_DESIGN_APPROVAL ( #290, ( #120 ) ) ;
#267 = ORIENTED_EDGE ( 'NONE', *, *, #63, .F. ) ;
#268 = DIRECTION ( 'NONE',  ( 0.000000000000000000, 0.000000000000000000, 1.000000000000000000 ) ) ;
#269 = CARTESIAN_POINT ( 'NONE',  ( 7.000000000000000000, 8.572527594031473190E-16, 0.000000000000000000 ) ) ;
#270 = DIRECTION ( 'NONE',  ( -0.000000000000000000, -0.000000000000000000, -1.000000000000000000 ) ) ;
#271 = DIRECTION ( 'NONE',  ( -1.000000000000000000, 0.000000000000000000, 0.000000000000000000 ) ) ;
#272 = CC_DESIGN_DATE_AND_TIME_ASSIGNMENT ( #238, #89, ( #130 ) ) ;
#273 = FACE_OUTER_BOUND ( 'NONE', #35, .T. ) ;
#274 = AXIS2_PLACEMENT_3D ( 'NONE', #256, #301, #203 ) ;
#275 = AXIS2_PLACEMENT_3D ( 'NONE', #151, #278, #271 ) ;
#276 = FACE_OUTER_BOUND ( 'NONE', #307, .T. ) ;
#277 = LOCAL_TIME ( 14, 29, 23.00000000000000000, #194 ) ;
#278 = DIRECTION ( 'NONE',  ( -0.000000000000000000, -0.000000000000000000, -1.000000000000000000 ) ) ;
#279 = CARTESIAN_POINT ( 'NONE',  ( 0.000000000000000000, 0.000000000000000000, 405.0000000000000000 ) ) ;
#280 = CC_DESIGN_PERSON_AND_ORGANIZATION_ASSIGNMENT ( #144, #142, ( #120 ) ) ;
#281 = PLANE ( 'NONE',  #141 ) ;
#282 = COORDINATED_UNIVERSAL_TIME_OFFSET ( 1, 0, .AHEAD. ) ;
#283 =( NAMED_UNIT ( * ) SI_UNIT ( $, .STERADIAN. ) SOLID_ANGLE_UNIT ( ) );
#284 = EDGE_CURVE ( 'NONE', #291, #132, #22, .T. ) ;
#285 = APPROVAL_STATUS ( 'not_yet_approved' ) ;
#286 = ORIENTED_EDGE ( 'NONE', *, *, #90, .F. ) ;
#287 = ORIENTED_EDGE ( 'NONE', *, *, #215, .F. ) ;
#288 = EDGE_LOOP ( 'NONE', ( #242, #239 ) ) ;
#289 = CIRCLE ( 'NONE', #66, 0.1999999999999996503 ) ;
#290 = APPROVAL ( #285, 'NEURÈENÝ' ) ;
#291 = VERTEX_POINT ( 'NONE', #37 ) ;
#292 = VERTEX_POINT ( 'NONE', #133 ) ;
#293 = CIRCLE ( 'NONE', #246, 4.500000000000000000 ) ;
#294 = CYLINDRICAL_SURFACE ( 'NONE', #170, 7.000000000000000000 ) ;
#295 = PLANE ( 'NONE',  #186 ) ;
#296 = ORIENTED_EDGE ( 'NONE', *, *, #113, .T. ) ;
#297 = CARTESIAN_POINT ( 'NONE',  ( 4.500000000000000000, 5.510910596163088569E-16, 405.0000000000000000 ) ) ;
#298 = DIRECTION ( 'NONE',  ( 0.000000000000000000, 0.000000000000000000, 1.000000000000000000 ) ) ;
#299 = AXIS2_PLACEMENT_3D ( 'NONE', #16, #123, #300 ) ;
#300 = DIRECTION ( 'NONE',  ( 1.000000000000000000, 0.000000000000000000, 0.000000000000000000 ) ) ;
#301 = DIRECTION ( 'NONE',  ( 0.000000000000000000, 0.000000000000000000, 1.000000000000000000 ) ) ;
#302 = DIRECTION ( 'NONE',  ( 0.000000000000000000, 0.000000000000000000, 1.000000000000000000 ) ) ;
#303 = DATE_AND_TIME ( #47, #88 ) ;
#304 = PERSON_AND_ORGANIZATION ( #212, #204 ) ;
#305 = PERSON_AND_ORGANIZATION_ROLE ( 'creator' ) ;
#306 = APPLICATION_PROTOCOL_DEFINITION ( 'international standard', 'config_control_design', 1994, #99 ) ;
#307 = EDGE_LOOP ( 'NONE', ( #27, #220 ) ) ;
ENDSEC;
END-ISO-10303-21;
