ISO-10303-21;
HEADER;
FILE_DESCRIPTION (( 'STEP AP203' ),
    '1' );
FILE_NAME ('d852.STEP',
    '2022-07-07T12:37:15',
    ( '' ),
    ( '' ),
    'SwSTEP 2.0',
    'SolidWorks 2019',
    '' );
FILE_SCHEMA (( 'CONFIG_CONTROL_DESIGN' ));
ENDSEC;

DATA;
#1 = ORIENTED_EDGE ( 'NONE', *, *, #22, .F. ) ;
#2 = FACE_OUTER_BOUND ( 'NONE', #189, .T. ) ;
#3 = ORIENTED_EDGE ( 'NONE', *, *, #96, .T. ) ;
#4 = MECHANICAL_CONTEXT ( 'NONE', #125, 'mechanical' ) ;
#5 = AXIS2_PLACEMENT_3D ( 'NONE', #95, #119, #144 ) ;
#6 = PLANE ( 'NONE',  #126 ) ;
#7 = DIRECTION ( 'NONE',  ( -1.000000000000000000, 0.000000000000000000, 0.000000000000000000 ) ) ;
#8 = APPROVAL ( #156, 'NEURÈENÝ' ) ;
#9 = DIRECTION ( 'NONE',  ( 1.000000000000000000, 0.000000000000000000, 0.000000000000000000 ) ) ;
#10 = DIRECTION ( 'NONE',  ( 1.000000000000000000, 0.000000000000000000, -0.000000000000000000 ) ) ;
#11 = COORDINATED_UNIVERSAL_TIME_OFFSET ( 1, 0, .AHEAD. ) ;
#12 = CARTESIAN_POINT ( 'NONE',  ( -6.000000000000000888, 0.000000000000000000, 5.000000000000000000 ) ) ;
#13 = DIRECTION ( 'NONE',  ( 0.000000000000000000, 0.000000000000000000, 1.000000000000000000 ) ) ;
#14 = DATE_TIME_ROLE ( 'creation_date' ) ;
#15 = FACE_OUTER_BOUND ( 'NONE', #114, .T. ) ;
#16 = EDGE_CURVE ( 'NONE', #234, #211, #199, .T. ) ;
#17 = DATE_AND_TIME ( #249, #280 ) ;
#18 = CIRCLE ( 'NONE', #5, 3.500000000000000000 ) ;
#19 = CARTESIAN_POINT ( 'NONE',  ( -3.700000000000000178, 4.531193156845206201E-16, 4.999999999999991118 ) ) ;
#20 = EDGE_LOOP ( 'NONE', ( #166, #115, #23, #46 ) ) ;
#21 = ADVANCED_FACE ( 'NONE', ( #177 ), #130, .T. ) ;
#22 = EDGE_CURVE ( 'NONE', #258, #93, #117, .T. ) ;
#23 = ORIENTED_EDGE ( 'NONE', *, *, #128, .F. ) ;
#24 = VERTEX_POINT ( 'NONE', #153 ) ;
#25 = CARTESIAN_POINT ( 'NONE',  ( 0.000000000000000000, 0.000000000000000000, 0.000000000000000000 ) ) ;
#26 = ORIENTED_EDGE ( 'NONE', *, *, #184, .F. ) ;
#27 = DIRECTION ( 'NONE',  ( 0.000000000000000000, 0.000000000000000000, 1.000000000000000000 ) ) ;
#28 = PLANE ( 'NONE',  #112 ) ;
#29 = APPLICATION_CONTEXT ( 'configuration controlled 3d designs of mechanical parts and assemblies' ) ;
#30 = COORDINATED_UNIVERSAL_TIME_OFFSET ( 1, 0, .AHEAD. ) ;
#31 = TOROIDAL_SURFACE ( 'NONE', #301, 3.700000000000000178, 0.2000000000000000111 ) ;
#32 = CIRCLE ( 'NONE', #149, 0.2000000000000000944 ) ;
#33 = EDGE_CURVE ( 'NONE', #93, #258, #275, .T. ) ;
#34 = AXIS2_PLACEMENT_3D ( 'NONE', #302, #185, #277 ) ;
#35 = DIRECTION ( 'NONE',  ( -0.000000000000000000, -0.000000000000000000, -1.000000000000000000 ) ) ;
#36 = DIRECTION ( 'NONE',  ( 1.000000000000000000, 0.000000000000000000, 0.000000000000000000 ) ) ;
#37 = DIRECTION ( 'NONE',  ( 1.000000000000000000, 0.000000000000000000, 0.000000000000000000 ) ) ;
#38 = CARTESIAN_POINT ( 'NONE',  ( 0.000000000000000000, 0.000000000000000000, 320.0000000000000000 ) ) ;
#39 = APPROVAL_ROLE ( '' ) ;
#40 = SHAPE_DEFINITION_REPRESENTATION ( #231, #221 ) ;
#41 = CARTESIAN_POINT ( 'NONE',  ( 6.000000000000000888, 7.347880794884120722E-16, 5.000000000000000000 ) ) ;
#42 = CC_DESIGN_DATE_AND_TIME_ASSIGNMENT ( #201, #203, ( #68 ) ) ;
#43 = ADVANCED_FACE ( 'NONE', ( #194 ), #59, .T. ) ;
#44 = DIRECTION ( 'NONE',  ( -0.000000000000000000, -0.000000000000000000, -1.000000000000000000 ) ) ;
#45 = AXIS2_PLACEMENT_3D ( 'NONE', #154, #223, #7 ) ;
#46 = ORIENTED_EDGE ( 'NONE', *, *, #267, .F. ) ;
#47 = CC_DESIGN_PERSON_AND_ORGANIZATION_ASSIGNMENT ( #273, #278, ( #68 ) ) ;
#48 = EDGE_LOOP ( 'NONE', ( #210, #256 ) ) ;
#49 = ORIENTED_EDGE ( 'NONE', *, *, #174, .T. ) ;
#50 = AXIS2_PLACEMENT_3D ( 'NONE', #272, #248, #134 ) ;
#51 = ORIENTED_EDGE ( 'NONE', *, *, #202, .F. ) ;
#52 = DIRECTION ( 'NONE',  ( 1.000000000000000000, 0.000000000000000000, 0.000000000000000000 ) ) ;
#53 = CARTESIAN_POINT ( 'NONE',  ( 3.700000000000000178, 0.000000000000000000, 5.199999999999982414 ) ) ;
#54 = EDGE_CURVE ( 'NONE', #24, #207, #32, .T. ) ;
#55 = FACE_OUTER_BOUND ( 'NONE', #257, .T. ) ;
#56 = CARTESIAN_POINT ( 'NONE',  ( -3.700000000000000178, 4.531193156845206201E-16, 5.199999999999982414 ) ) ;
#57 = COORDINATED_UNIVERSAL_TIME_OFFSET ( 1, 0, .AHEAD. ) ;
#58 = CARTESIAN_POINT ( 'NONE',  ( 0.000000000000000000, 0.000000000000000000, 5.199999999999982414 ) ) ;
#59 = CYLINDRICAL_SURFACE ( 'NONE', #243, 6.000000000000000888 ) ;
#60 = MANIFOLD_SOLID_BREP ( 'Zaoblit1', #307 ) ;
#61 = PERSON_AND_ORGANIZATION ( #250, #293 ) ;
#62 = EDGE_CURVE ( 'NONE', #211, #234, #148, .T. ) ;
#63 = DIRECTION ( 'NONE',  ( -0.000000000000000000, -0.000000000000000000, -1.000000000000000000 ) ) ;
#64 = PERSON_AND_ORGANIZATION_ROLE ( 'design_supplier' ) ;
#65 = DIRECTION ( 'NONE',  ( 1.000000000000000000, 0.000000000000000000, 0.000000000000000000 ) ) ;
#66 = DATE_AND_TIME ( #106, #104 ) ;
#67 = APPROVAL ( #191, 'NEURÈENÝ' ) ;
#68 = SECURITY_CLASSIFICATION ( '', '', #186 ) ;
#69 = VERTEX_POINT ( 'NONE', #224 ) ;
#70 = AXIS2_PLACEMENT_3D ( 'NONE', #269, #152, #129 ) ;
#71 = ORIENTED_EDGE ( 'NONE', *, *, #128, .T. ) ;
#72 = ORIENTED_EDGE ( 'NONE', *, *, #174, .F. ) ;
#73 = APPLICATION_PROTOCOL_DEFINITION ( 'international standard', 'config_control_design', 1994, #29 ) ;
#74 = ORIENTED_EDGE ( 'NONE', *, *, #33, .F. ) ;
#75 = EDGE_CURVE ( 'NONE', #116, #169, #287, .T. ) ;
#76 = LOCAL_TIME ( 14, 37, 15.00000000000000000, #30 ) ;
#77 = CYLINDRICAL_SURFACE ( 'NONE', #151, 3.500000000000000000 ) ;
#78 = CIRCLE ( 'NONE', #244, 0.1999999999999996503 ) ;
#79 = FACE_OUTER_BOUND ( 'NONE', #48, .T. ) ;
#80 = FACE_BOUND ( 'NONE', #188, .T. ) ;
#81 = CC_DESIGN_APPROVAL ( #283, ( #306 ) ) ;
#82 = AXIS2_PLACEMENT_3D ( 'NONE', #282, #84, #36 ) ;
#83 = CARTESIAN_POINT ( 'NONE',  ( -6.000000000000000888, 0.000000000000000000, 5.000000000000000000 ) ) ;
#84 = DIRECTION ( 'NONE',  ( 0.000000000000000000, 0.000000000000000000, 1.000000000000000000 ) ) ;
#85 = DIRECTION ( 'NONE',  ( 1.000000000000000000, 0.000000000000000000, 0.000000000000000000 ) ) ;
#86 = DIRECTION ( 'NONE',  ( -1.000000000000000000, 1.224646799147350742E-16, 0.000000000000000000 ) ) ;
#87 = COORDINATED_UNIVERSAL_TIME_OFFSET ( 1, 0, .AHEAD. ) ;
#88 = ADVANCED_FACE ( 'NONE', ( #245 ), #31, .F. ) ;
#89 = CYLINDRICAL_SURFACE ( 'NONE', #294, 3.500000000000000000 ) ;
#90 = CALENDAR_DATE ( 2022, 7, 7 ) ;
#91 = DIRECTION ( 'NONE',  ( -0.000000000000000000, -0.000000000000000000, -1.000000000000000000 ) ) ;
#92 = ORIENTED_EDGE ( 'NONE', *, *, #238, .T. ) ;
#93 = VERTEX_POINT ( 'NONE', #83 ) ;
#94 = EDGE_LOOP ( 'NONE', ( #235, #141 ) ) ;
#95 = CARTESIAN_POINT ( 'NONE',  ( 0.000000000000000000, 0.000000000000000000, 320.0000000000000000 ) ) ;
#96 = EDGE_CURVE ( 'NONE', #93, #234, #132, .T. ) ;
#97 = ORIENTED_EDGE ( 'NONE', *, *, #238, .F. ) ;
#98 = DIRECTION ( 'NONE',  ( 0.000000000000000000, 0.000000000000000000, 1.000000000000000000 ) ) ;
#99 =( LENGTH_UNIT ( ) NAMED_UNIT ( * ) SI_UNIT ( .MILLI., .METRE. ) );
#100 = AXIS2_PLACEMENT_3D ( 'NONE', #102, #291, #9 ) ;
#101 = DIRECTION ( 'NONE',  ( 1.000000000000000000, 0.000000000000000000, -0.000000000000000000 ) ) ;
#102 = CARTESIAN_POINT ( 'NONE',  ( 0.000000000000000000, 0.000000000000000000, 320.0000000000000000 ) ) ;
#103 = CARTESIAN_POINT ( 'NONE',  ( 0.000000000000000000, 0.000000000000000000, 5.000000000000000000 ) ) ;
#104 = LOCAL_TIME ( 14, 37, 15.00000000000000000, #87 ) ;
#105 = DIRECTION ( 'NONE',  ( 1.224646799147353207E-16, 1.000000000000000000, -0.000000000000000000 ) ) ;
#106 = CALENDAR_DATE ( 2022, 7, 7 ) ;
#107 = CC_DESIGN_PERSON_AND_ORGANIZATION_ASSIGNMENT ( #131, #227, ( #217 ) ) ;
#108 = DIRECTION ( 'NONE',  ( 1.000000000000000000, 0.000000000000000000, 0.000000000000000000 ) ) ;
#109 = DESIGN_CONTEXT ( 'detailed design', #29, 'design' ) ;
#110 = CARTESIAN_POINT ( 'NONE',  ( 3.700000000000000178, 0.000000000000000000, 4.999999999999991118 ) ) ;
#111 = PERSON_AND_ORGANIZATION_ROLE ( 'creator' ) ;
#112 = AXIS2_PLACEMENT_3D ( 'NONE', #173, #27, #265 ) ;
#113 = LINE ( 'NONE', #41, #205 ) ;
#114 = EDGE_LOOP ( 'NONE', ( #51, #284, #279, #285 ) ) ;
#115 = ORIENTED_EDGE ( 'NONE', *, *, #54, .T. ) ;
#116 = VERTEX_POINT ( 'NONE', #247 ) ;
#117 = CIRCLE ( 'NONE', #196, 6.000000000000000888 ) ;
#118 = EDGE_LOOP ( 'NONE', ( #209, #232 ) ) ;
#119 = DIRECTION ( 'NONE',  ( 0.000000000000000000, 0.000000000000000000, 1.000000000000000000 ) ) ;
#120 =( NAMED_UNIT ( * ) SI_UNIT ( $, .STERADIAN. ) SOLID_ANGLE_UNIT ( ) );
#121 = LOCAL_TIME ( 14, 37, 15.00000000000000000, #57 ) ;
#122 = CC_DESIGN_PERSON_AND_ORGANIZATION_ASSIGNMENT ( #242, #172, ( #187 ) ) ;
#123 = APPROVAL_DATE_TIME ( #146, #67 ) ;
#124 = AXIS2_PLACEMENT_3D ( 'NONE', #253, #160, #65 ) ;
#125 = APPLICATION_CONTEXT ( 'configuration controlled 3d designs of mechanical parts and assemblies' ) ;
#126 = AXIS2_PLACEMENT_3D ( 'NONE', #214, #192, #101 ) ;
#127 = CC_DESIGN_DATE_AND_TIME_ASSIGNMENT ( #66, #14, ( #217 ) ) ;
#128 = EDGE_CURVE ( 'NONE', #233, #207, #218, .T. ) ;
#129 = DIRECTION ( 'NONE',  ( 1.000000000000000000, 0.000000000000000000, 0.000000000000000000 ) ) ;
#130 = PLANE ( 'NONE',  #281 ) ;
#131 = PERSON_AND_ORGANIZATION ( #250, #293 ) ;
#132 = LINE ( 'NONE', #12, #197 ) ;
#133 = APPROVAL_PERSON_ORGANIZATION ( #236, #67, #286 ) ;
#134 = DIRECTION ( 'NONE',  ( 1.000000000000000000, 0.000000000000000000, 0.000000000000000000 ) ) ;
#135 = DIRECTION ( 'NONE',  ( 1.000000000000000000, 0.000000000000000000, 0.000000000000000000 ) ) ;
#136 = CARTESIAN_POINT ( 'NONE',  ( 6.000000000000000888, 7.347880794884120722E-16, 5.000000000000000000 ) ) ;
#137 = ORIENTED_EDGE ( 'NONE', *, *, #295, .F. ) ;
#138 = ORIENTED_EDGE ( 'NONE', *, *, #54, .F. ) ;
#139 = ORIENTED_EDGE ( 'NONE', *, *, #16, .T. ) ;
#140 = ADVANCED_FACE ( 'NONE', ( #55 ), #178, .T. ) ;
#141 = ORIENTED_EDGE ( 'NONE', *, *, #295, .T. ) ;
#142 = CC_DESIGN_APPROVAL ( #8, ( #68 ) ) ;
#143 = AXIS2_PLACEMENT_3D ( 'NONE', #219, #44, #135 ) ;
#144 = DIRECTION ( 'NONE',  ( 1.000000000000000000, 0.000000000000000000, 0.000000000000000000 ) ) ;
#145 = ORIENTED_EDGE ( 'NONE', *, *, #202, .T. ) ;
#146 = DATE_AND_TIME ( #263, #76 ) ;
#147 =( NAMED_UNIT ( * ) PLANE_ANGLE_UNIT ( ) SI_UNIT ( $, .RADIAN. ) );
#148 = CIRCLE ( 'NONE', #50, 6.000000000000000888 ) ;
#149 = AXIS2_PLACEMENT_3D ( 'NONE', #56, #105, #86 ) ;
#150 = ADVANCED_FACE ( 'NONE', ( #271 ), #213, .F. ) ;
#151 = AXIS2_PLACEMENT_3D ( 'NONE', #168, #171, #240 ) ;
#152 = DIRECTION ( 'NONE',  ( 0.000000000000000000, 0.000000000000000000, 1.000000000000000000 ) ) ;
#153 = CARTESIAN_POINT ( 'NONE',  ( -3.500000000000000000, 0.000000000000000000, 5.199999999999982414 ) ) ;
#154 = CARTESIAN_POINT ( 'NONE',  ( 0.000000000000000000, 0.000000000000000000, 5.000000000000000000 ) ) ;
#155 = DIRECTION ( 'NONE',  ( 1.000000000000000000, 0.000000000000000000, 0.000000000000000000 ) ) ;
#156 = APPROVAL_STATUS ( 'not_yet_approved' ) ;
#157 = APPROVAL_DATE_TIME ( #17, #283 ) ;
#158 = DIRECTION ( 'NONE',  ( -1.000000000000000000, 0.000000000000000000, 0.000000000000000000 ) ) ;
#159 = COORDINATED_UNIVERSAL_TIME_OFFSET ( 1, 0, .AHEAD. ) ;
#160 = DIRECTION ( 'NONE',  ( 0.000000000000000000, 0.000000000000000000, 1.000000000000000000 ) ) ;
#161 = DATE_AND_TIME ( #90, #121 ) ;
#162 = CC_DESIGN_SECURITY_CLASSIFICATION ( #68, ( #306 ) ) ;
#163 = ORIENTED_EDGE ( 'NONE', *, *, #96, .F. ) ;
#164 = CC_DESIGN_APPROVAL ( #67, ( #217 ) ) ;
#165 = CIRCLE ( 'NONE', #34, 3.500000000000000000 ) ;
#166 = ORIENTED_EDGE ( 'NONE', *, *, #237, .F. ) ;
#167 = EDGE_LOOP ( 'NONE', ( #1, #305, #190, #163 ) ) ;
#168 = CARTESIAN_POINT ( 'NONE',  ( 0.000000000000000000, 0.000000000000000000, 320.0000000000000000 ) ) ;
#169 = VERTEX_POINT ( 'NONE', #175 ) ;
#170 = AXIS2_PLACEMENT_3D ( 'NONE', #103, #296, #37 ) ;
#171 = DIRECTION ( 'NONE',  ( -0.000000000000000000, -0.000000000000000000, -1.000000000000000000 ) ) ;
#172 = PERSON_AND_ORGANIZATION_ROLE ( 'design_owner' ) ;
#173 = CARTESIAN_POINT ( 'NONE',  ( 0.000000000000000000, 0.000000000000000000, 5.000000000000000000 ) ) ;
#174 = EDGE_CURVE ( 'NONE', #207, #233, #255, .T. ) ;
#175 = CARTESIAN_POINT ( 'NONE',  ( 3.500000000000000000, 4.286263797015736595E-16, 320.0000000000000000 ) ) ;
#176 = AXIS2_PLACEMENT_3D ( 'NONE', #25, #98, #52 ) ;
#177 = FACE_OUTER_BOUND ( 'NONE', #94, .T. ) ;
#178 = CYLINDRICAL_SURFACE ( 'NONE', #45, 6.000000000000000888 ) ;
#179 = DIRECTION ( 'NONE',  ( -1.000000000000000000, 0.000000000000000000, 0.000000000000000000 ) ) ;
#180 = PERSON_AND_ORGANIZATION ( #250, #293 ) ;
#181 = DIRECTION ( 'NONE',  ( -0.000000000000000000, -0.000000000000000000, -1.000000000000000000 ) ) ;
#182 = CIRCLE ( 'NONE', #124, 3.500000000000000000 ) ;
#183 = EDGE_CURVE ( 'NONE', #116, #24, #229, .T. ) ;
#184 = EDGE_CURVE ( 'NONE', #258, #211, #113, .T. ) ;
#185 = DIRECTION ( 'NONE',  ( 0.000000000000000000, 0.000000000000000000, 1.000000000000000000 ) ) ;
#186 = SECURITY_CLASSIFICATION_LEVEL ( 'unclassified' ) ;
#187 = PRODUCT ( 'd852', 'd852', '', ( #4 ) ) ;
#188 = EDGE_LOOP ( 'NONE', ( #71, #49 ) ) ;
#189 = EDGE_LOOP ( 'NONE', ( #137, #145, #92, #261 ) ) ;
#190 = ORIENTED_EDGE ( 'NONE', *, *, #62, .T. ) ;
#191 = APPROVAL_STATUS ( 'not_yet_approved' ) ;
#192 = DIRECTION ( 'NONE',  ( 0.000000000000000000, 0.000000000000000000, 1.000000000000000000 ) ) ;
#193 = DIRECTION ( 'NONE',  ( 0.000000000000000000, 0.000000000000000000, 1.000000000000000000 ) ) ;
#194 = FACE_OUTER_BOUND ( 'NONE', #167, .T. ) ;
#195 = APPROVAL_PERSON_ORGANIZATION ( #298, #283, #200 ) ;
#196 = AXIS2_PLACEMENT_3D ( 'NONE', #198, #13, #155 ) ;
#197 = VECTOR ( 'NONE', #35, 1000.000000000000000 ) ;
#198 = CARTESIAN_POINT ( 'NONE',  ( 0.000000000000000000, 0.000000000000000000, 5.000000000000000000 ) ) ;
#199 = CIRCLE ( 'NONE', #82, 6.000000000000000888 ) ;
#200 = APPROVAL_ROLE ( '' ) ;
#201 = DATE_AND_TIME ( #251, #222 ) ;
#202 = EDGE_CURVE ( 'NONE', #169, #69, #206, .T. ) ;
#203 = DATE_TIME_ROLE ( 'classification_date' ) ;
#204 = CARTESIAN_POINT ( 'NONE',  ( -6.000000000000000888, 0.000000000000000000, 0.000000000000000000 ) ) ;
#205 = VECTOR ( 'NONE', #181, 1000.000000000000000 ) ;
#206 = LINE ( 'NONE', #303, #241 ) ;
#207 = VERTEX_POINT ( 'NONE', #19 ) ;
#208 = EDGE_LOOP ( 'NONE', ( #138, #97, #304, #72 ) ) ;
#209 = ORIENTED_EDGE ( 'NONE', *, *, #33, .T. ) ;
#210 = ORIENTED_EDGE ( 'NONE', *, *, #16, .F. ) ;
#211 = VERTEX_POINT ( 'NONE', #299 ) ;
#212 = ADVANCED_FACE ( 'NONE', ( #15 ), #89, .T. ) ;
#213 = TOROIDAL_SURFACE ( 'NONE', #70, 3.700000000000000178, 0.2000000000000000111 ) ;
#214 = CARTESIAN_POINT ( 'NONE',  ( 0.000000000000000000, 0.000000000000000000, 0.000000000000000000 ) ) ;
#215 = AXIS2_PLACEMENT_3D ( 'NONE', #220, #292, #108 ) ;
#216 = FACE_OUTER_BOUND ( 'NONE', #118, .T. ) ;
#217 = PRODUCT_DEFINITION ( 'NEZNÁMÝ', '', #306, #109 ) ;
#218 = CIRCLE ( 'NONE', #170, 3.700000000000000178 ) ;
#219 = CARTESIAN_POINT ( 'NONE',  ( 0.000000000000000000, 0.000000000000000000, 5.000000000000000000 ) ) ;
#220 = CARTESIAN_POINT ( 'NONE',  ( 0.000000000000000000, 0.000000000000000000, 5.000000000000000000 ) ) ;
#221 = ADVANCED_BREP_SHAPE_REPRESENTATION ( 'd852', ( #60, #176 ), #230 ) ;
#222 = LOCAL_TIME ( 14, 37, 15.00000000000000000, #11 ) ;
#223 = DIRECTION ( 'NONE',  ( -0.000000000000000000, -0.000000000000000000, -1.000000000000000000 ) ) ;
#224 = CARTESIAN_POINT ( 'NONE',  ( 3.500000000000000000, 4.286263797015736595E-16, 5.199999999999982414 ) ) ;
#225 = UNCERTAINTY_MEASURE_WITH_UNIT (LENGTH_MEASURE( 1.000000000000000082E-05 ), #99, 'distance_accuracy_value', 'NONE');
#226 = CC_DESIGN_PERSON_AND_ORGANIZATION_ASSIGNMENT ( #61, #64, ( #306 ) ) ;
#227 = PERSON_AND_ORGANIZATION_ROLE ( 'creator' ) ;
#228 = DIRECTION ( 'NONE',  ( -0.000000000000000000, -0.000000000000000000, -1.000000000000000000 ) ) ;
#229 = LINE ( 'NONE', #252, #260 ) ;
#230 =( GEOMETRIC_REPRESENTATION_CONTEXT ( 3 ) GLOBAL_UNCERTAINTY_ASSIGNED_CONTEXT ( ( #225 ) ) GLOBAL_UNIT_ASSIGNED_CONTEXT ( ( #99, #147, #120 ) ) REPRESENTATION_CONTEXT ( 'NONE', 'WORKASPACE' ) );
#231 = PRODUCT_DEFINITION_SHAPE ( 'NONE', 'NONE',  #217 ) ;
#232 = ORIENTED_EDGE ( 'NONE', *, *, #22, .T. ) ;
#233 = VERTEX_POINT ( 'NONE', #110 ) ;
#234 = VERTEX_POINT ( 'NONE', #204 ) ;
#235 = ORIENTED_EDGE ( 'NONE', *, *, #75, .T. ) ;
#236 = PERSON_AND_ORGANIZATION ( #250, #293 ) ;
#237 = EDGE_CURVE ( 'NONE', #24, #69, #165, .T. ) ;
#238 = EDGE_CURVE ( 'NONE', #69, #24, #182, .T. ) ;
#239 = APPLICATION_PROTOCOL_DEFINITION ( 'international standard', 'config_control_design', 1994, #125 ) ;
#240 = DIRECTION ( 'NONE',  ( -1.000000000000000000, 0.000000000000000000, 0.000000000000000000 ) ) ;
#241 = VECTOR ( 'NONE', #228, 1000.000000000000000 ) ;
#242 = PERSON_AND_ORGANIZATION ( #250, #293 ) ;
#243 = AXIS2_PLACEMENT_3D ( 'NONE', #297, #246, #179 ) ;
#244 = AXIS2_PLACEMENT_3D ( 'NONE', #53, #262, #289 ) ;
#245 = FACE_OUTER_BOUND ( 'NONE', #20, .T. ) ;
#246 = DIRECTION ( 'NONE',  ( -0.000000000000000000, -0.000000000000000000, -1.000000000000000000 ) ) ;
#247 = CARTESIAN_POINT ( 'NONE',  ( -3.500000000000000000, 0.000000000000000000, 320.0000000000000000 ) ) ;
#248 = DIRECTION ( 'NONE',  ( 0.000000000000000000, 0.000000000000000000, 1.000000000000000000 ) ) ;
#249 = CALENDAR_DATE ( 2022, 7, 7 ) ;
#250 = PERSON ( 'NEURÈENÝ', 'NEURÈENÝ', 'NEURÈENÝ', ('NEURÈENÝ'), ('NEURÈENÝ'), ('NEURÈENÝ') ) ;
#251 = CALENDAR_DATE ( 2022, 7, 7 ) ;
#252 = CARTESIAN_POINT ( 'NONE',  ( -3.500000000000000000, 0.000000000000000000, 320.0000000000000000 ) ) ;
#253 = CARTESIAN_POINT ( 'NONE',  ( 0.000000000000000000, 0.000000000000000000, 5.199999999999982414 ) ) ;
#254 = APPROVAL_DATE_TIME ( #161, #8 ) ;
#255 = CIRCLE ( 'NONE', #143, 3.700000000000000178 ) ;
#256 = ORIENTED_EDGE ( 'NONE', *, *, #62, .F. ) ;
#257 = EDGE_LOOP ( 'NONE', ( #26, #74, #3, #139 ) ) ;
#258 = VERTEX_POINT ( 'NONE', #136 ) ;
#259 = ADVANCED_FACE ( 'NONE', ( #79 ), #6, .F. ) ;
#260 = VECTOR ( 'NONE', #91, 1000.000000000000000 ) ;
#261 = ORIENTED_EDGE ( 'NONE', *, *, #183, .F. ) ;
#262 = DIRECTION ( 'NONE',  ( 0.000000000000000000, -1.000000000000000000, 0.000000000000000000 ) ) ;
#263 = CALENDAR_DATE ( 2022, 7, 7 ) ;
#264 = CC_DESIGN_PERSON_AND_ORGANIZATION_ASSIGNMENT ( #180, #111, ( #306 ) ) ;
#265 = DIRECTION ( 'NONE',  ( 1.000000000000000000, 0.000000000000000000, -0.000000000000000000 ) ) ;
#266 = APPROVAL_PERSON_ORGANIZATION ( #274, #8, #39 ) ;
#267 = EDGE_CURVE ( 'NONE', #69, #233, #78, .T. ) ;
#268 = ADVANCED_FACE ( 'NONE', ( #2 ), #77, .T. ) ;
#269 = CARTESIAN_POINT ( 'NONE',  ( 0.000000000000000000, 0.000000000000000000, 5.199999999999982414 ) ) ;
#270 = DIRECTION ( 'NONE',  ( 0.000000000000000000, 0.000000000000000000, 1.000000000000000000 ) ) ;
#271 = FACE_OUTER_BOUND ( 'NONE', #208, .T. ) ;
#272 = CARTESIAN_POINT ( 'NONE',  ( 0.000000000000000000, 0.000000000000000000, 0.000000000000000000 ) ) ;
#273 = PERSON_AND_ORGANIZATION ( #250, #293 ) ;
#274 = PERSON_AND_ORGANIZATION ( #250, #293 ) ;
#275 = CIRCLE ( 'NONE', #215, 6.000000000000000888 ) ;
#276 = CARTESIAN_POINT ( 'NONE',  ( 0.000000000000000000, 0.000000000000000000, 320.0000000000000000 ) ) ;
#277 = DIRECTION ( 'NONE',  ( 1.000000000000000000, 0.000000000000000000, 0.000000000000000000 ) ) ;
#278 = PERSON_AND_ORGANIZATION_ROLE ( 'classification_officer' ) ;
#279 = ORIENTED_EDGE ( 'NONE', *, *, #183, .T. ) ;
#280 = LOCAL_TIME ( 14, 37, 15.00000000000000000, #159 ) ;
#281 = AXIS2_PLACEMENT_3D ( 'NONE', #38, #270, #10 ) ;
#282 = CARTESIAN_POINT ( 'NONE',  ( 0.000000000000000000, 0.000000000000000000, 0.000000000000000000 ) ) ;
#283 = APPROVAL ( #300, 'NEURÈENÝ' ) ;
#284 = ORIENTED_EDGE ( 'NONE', *, *, #75, .F. ) ;
#285 = ORIENTED_EDGE ( 'NONE', *, *, #237, .T. ) ;
#286 = APPROVAL_ROLE ( '' ) ;
#287 = CIRCLE ( 'NONE', #100, 3.500000000000000000 ) ;
#288 = PRODUCT_RELATED_PRODUCT_CATEGORY ( 'detail', '', ( #187 ) ) ;
#289 = DIRECTION ( 'NONE',  ( 0.000000000000000000, 0.000000000000000000, -1.000000000000000000 ) ) ;
#290 = ADVANCED_FACE ( 'NONE', ( #80, #216 ), #28, .T. ) ;
#291 = DIRECTION ( 'NONE',  ( 0.000000000000000000, 0.000000000000000000, 1.000000000000000000 ) ) ;
#292 = DIRECTION ( 'NONE',  ( 0.000000000000000000, 0.000000000000000000, 1.000000000000000000 ) ) ;
#293 = ORGANIZATION ( 'NEURÈENÝ', 'NEURÈENÝ', '' ) ;
#294 = AXIS2_PLACEMENT_3D ( 'NONE', #276, #63, #158 ) ;
#295 = EDGE_CURVE ( 'NONE', #169, #116, #18, .T. ) ;
#296 = DIRECTION ( 'NONE',  ( -0.000000000000000000, -0.000000000000000000, -1.000000000000000000 ) ) ;
#297 = CARTESIAN_POINT ( 'NONE',  ( 0.000000000000000000, 0.000000000000000000, 5.000000000000000000 ) ) ;
#298 = PERSON_AND_ORGANIZATION ( #250, #293 ) ;
#299 = CARTESIAN_POINT ( 'NONE',  ( 6.000000000000000888, 7.347880794884120722E-16, 0.000000000000000000 ) ) ;
#300 = APPROVAL_STATUS ( 'not_yet_approved' ) ;
#301 = AXIS2_PLACEMENT_3D ( 'NONE', #58, #193, #85 ) ;
#302 = CARTESIAN_POINT ( 'NONE',  ( 0.000000000000000000, 0.000000000000000000, 5.199999999999982414 ) ) ;
#303 = CARTESIAN_POINT ( 'NONE',  ( 3.500000000000000000, 4.286263797015736595E-16, 320.0000000000000000 ) ) ;
#304 = ORIENTED_EDGE ( 'NONE', *, *, #267, .T. ) ;
#305 = ORIENTED_EDGE ( 'NONE', *, *, #184, .T. ) ;
#306 = PRODUCT_DEFINITION_FORMATION_WITH_SPECIFIED_SOURCE ( 'LIBOVOLNÝ', '', #187, .NOT_KNOWN. ) ;
#307 = CLOSED_SHELL ( 'NONE', ( #88, #268, #43, #140, #290, #259, #212, #21, #150 ) ) ;
ENDSEC;
END-ISO-10303-21;
