ISO-10303-21;
HEADER;
FILE_DESCRIPTION (( 'STEP AP203' ),
    '1' );
FILE_NAME ('2ea9.STEP',
    '2022-07-07T12:39:47',
    ( '' ),
    ( '' ),
    'SwSTEP 2.0',
    'SolidWorks 2019',
    '' );
FILE_SCHEMA (( 'CONFIG_CONTROL_DESIGN' ));
ENDSEC;

DATA;
#1 = VECTOR ( 'NONE', #266, 1000.000000000000000 ) ;
#2 = ORIENTED_EDGE ( 'NONE', *, *, #230, .T. ) ;
#3 = EDGE_CURVE ( 'NONE', #72, #140, #296, .T. ) ;
#4 = AXIS2_PLACEMENT_3D ( 'NONE', #232, #15, #18 ) ;
#5 = DIRECTION ( 'NONE',  ( 1.224646799147353207E-16, 1.000000000000000000, -0.000000000000000000 ) ) ;
#6 = ORIENTED_EDGE ( 'NONE', *, *, #220, .T. ) ;
#7 = CARTESIAN_POINT ( 'NONE',  ( 0.000000000000000000, 0.000000000000000000, 505.0000000000000000 ) ) ;
#8 = DIRECTION ( 'NONE',  ( 0.000000000000000000, 0.000000000000000000, 1.000000000000000000 ) ) ;
#9 = ADVANCED_FACE ( 'NONE', ( #239 ), #205, .F. ) ;
#10 = APPROVAL_ROLE ( '' ) ;
#11 = LOCAL_TIME ( 14, 39, 47.00000000000000000, #179 ) ;
#12 = CARTESIAN_POINT ( 'NONE',  ( 0.000000000000000000, 0.000000000000000000, 5.000000000000000000 ) ) ;
#13 = DIRECTION ( 'NONE',  ( 0.000000000000000000, 0.000000000000000000, 1.000000000000000000 ) ) ;
#14 = AXIS2_PLACEMENT_3D ( 'NONE', #27, #194, #122 ) ;
#15 = DIRECTION ( 'NONE',  ( 0.000000000000000000, 0.000000000000000000, 1.000000000000000000 ) ) ;
#16 = PERSON_AND_ORGANIZATION ( #93, #51 ) ;
#17 = CC_DESIGN_PERSON_AND_ORGANIZATION_ASSIGNMENT ( #16, #108, ( #33 ) ) ;
#18 = DIRECTION ( 'NONE',  ( 1.000000000000000000, 0.000000000000000000, 0.000000000000000000 ) ) ;
#19 = AXIS2_PLACEMENT_3D ( 'NONE', #12, #206, #135 ) ;
#20 = CALENDAR_DATE ( 2022, 7, 7 ) ;
#21 = SHAPE_DEFINITION_REPRESENTATION ( #147, #150 ) ;
#22 = EDGE_LOOP ( 'NONE', ( #261, #159 ) ) ;
#23 = VERTEX_POINT ( 'NONE', #196 ) ;
#24 = CIRCLE ( 'NONE', #113, 0.2000000000000000944 ) ;
#25 = CARTESIAN_POINT ( 'NONE',  ( 6.000000000000000888, 7.347880794884120722E-16, 0.000000000000000000 ) ) ;
#26 = APPLICATION_CONTEXT ( 'configuration controlled 3d designs of mechanical parts and assemblies' ) ;
#27 = CARTESIAN_POINT ( 'NONE',  ( 0.000000000000000000, 0.000000000000000000, 5.199999999999982414 ) ) ;
#28 = CYLINDRICAL_SURFACE ( 'NONE', #202, 3.100000000000000089 ) ;
#29 = ADVANCED_FACE ( 'NONE', ( #222 ), #123, .T. ) ;
#30 = DIRECTION ( 'NONE',  ( -1.000000000000000000, 0.000000000000000000, 0.000000000000000000 ) ) ;
#31 = APPLICATION_CONTEXT ( 'configuration controlled 3d designs of mechanical parts and assemblies' ) ;
#32 = ORIENTED_EDGE ( 'NONE', *, *, #58, .T. ) ;
#33 = PRODUCT_DEFINITION_FORMATION_WITH_SPECIFIED_SOURCE ( 'LIBOVOLNÝ', '', #256, .NOT_KNOWN. ) ;
#34 = LOCAL_TIME ( 14, 39, 47.00000000000000000, #47 ) ;
#35 = DIRECTION ( 'NONE',  ( 1.000000000000000000, 0.000000000000000000, 0.000000000000000000 ) ) ;
#36 = ADVANCED_FACE ( 'NONE', ( #217 ), #28, .T. ) ;
#37 = DIRECTION ( 'NONE',  ( 1.000000000000000000, 0.000000000000000000, -0.000000000000000000 ) ) ;
#38 = CIRCLE ( 'NONE', #213, 3.100000000000000089 ) ;
#39 = DIRECTION ( 'NONE',  ( 1.000000000000000000, 0.000000000000000000, -0.000000000000000000 ) ) ;
#40 = APPLICATION_PROTOCOL_DEFINITION ( 'international standard', 'config_control_design', 1994, #31 ) ;
#41 = FACE_OUTER_BOUND ( 'NONE', #90, .T. ) ;
#42 = CC_DESIGN_PERSON_AND_ORGANIZATION_ASSIGNMENT ( #103, #200, ( #33 ) ) ;
#43 = FACE_OUTER_BOUND ( 'NONE', #69, .T. ) ;
#44 = MANIFOLD_SOLID_BREP ( 'Zaoblit1', #219 ) ;
#45 = APPROVAL_STATUS ( 'not_yet_approved' ) ;
#46 = CARTESIAN_POINT ( 'NONE',  ( -3.299999999999999822, 4.041334437186265510E-16, 4.999999999999991118 ) ) ;
#47 = COORDINATED_UNIVERSAL_TIME_OFFSET ( 1, 0, .AHEAD. ) ;
#48 = CC_DESIGN_APPROVAL ( #187, ( #33 ) ) ;
#49 = EDGE_CURVE ( 'NONE', #72, #306, #24, .T. ) ;
#50 = VERTEX_POINT ( 'NONE', #94 ) ;
#51 = ORGANIZATION ( 'NEURÈENÝ', 'NEURÈENÝ', '' ) ;
#52 = ORIENTED_EDGE ( 'NONE', *, *, #255, .F. ) ;
#53 = CARTESIAN_POINT ( 'NONE',  ( 6.000000000000000888, 7.347880794884120722E-16, 5.000000000000000000 ) ) ;
#54 = PRODUCT_DEFINITION ( 'NEZNÁMÝ', '', #33, #280 ) ;
#55 = ORIENTED_EDGE ( 'NONE', *, *, #230, .F. ) ;
#56 = CIRCLE ( 'NONE', #91, 6.000000000000000888 ) ;
#57 = CARTESIAN_POINT ( 'NONE',  ( -3.100000000000000089, 0.000000000000000000, 5.199999999999982414 ) ) ;
#58 = EDGE_CURVE ( 'NONE', #306, #50, #197, .T. ) ;
#59 = DIRECTION ( 'NONE',  ( -0.000000000000000000, -0.000000000000000000, -1.000000000000000000 ) ) ;
#60 = CARTESIAN_POINT ( 'NONE',  ( 3.100000000000000089, 3.796405077356794918E-16, 505.0000000000000000 ) ) ;
#61 = AXIS2_PLACEMENT_3D ( 'NONE', #285, #75, #195 ) ;
#62 = EDGE_CURVE ( 'NONE', #237, #92, #166, .T. ) ;
#63 = CARTESIAN_POINT ( 'NONE',  ( 0.000000000000000000, 0.000000000000000000, 505.0000000000000000 ) ) ;
#64 = PERSON_AND_ORGANIZATION_ROLE ( 'creator' ) ;
#65 = CARTESIAN_POINT ( 'NONE',  ( -6.000000000000000888, 0.000000000000000000, 0.000000000000000000 ) ) ;
#66 = COORDINATED_UNIVERSAL_TIME_OFFSET ( 1, 0, .AHEAD. ) ;
#67 = DIRECTION ( 'NONE',  ( 0.000000000000000000, 0.000000000000000000, 1.000000000000000000 ) ) ;
#68 = PERSON_AND_ORGANIZATION ( #93, #51 ) ;
#69 = EDGE_LOOP ( 'NONE', ( #125, #288, #305, #163 ) ) ;
#70 = EDGE_CURVE ( 'NONE', #281, #124, #171, .T. ) ;
#71 = VECTOR ( 'NONE', #79, 1000.000000000000000 ) ;
#72 = VERTEX_POINT ( 'NONE', #57 ) ;
#73 = ORIENTED_EDGE ( 'NONE', *, *, #3, .F. ) ;
#74 = ORIENTED_EDGE ( 'NONE', *, *, #287, .T. ) ;
#75 = DIRECTION ( 'NONE',  ( -0.000000000000000000, -0.000000000000000000, -1.000000000000000000 ) ) ;
#76 = AXIS2_PLACEMENT_3D ( 'NONE', #226, #133, #39 ) ;
#77 = ORIENTED_EDGE ( 'NONE', *, *, #58, .F. ) ;
#78 = EDGE_LOOP ( 'NONE', ( #185, #6, #2, #88 ) ) ;
#79 = DIRECTION ( 'NONE',  ( -0.000000000000000000, -0.000000000000000000, -1.000000000000000000 ) ) ;
#80 = PRODUCT_RELATED_PRODUCT_CATEGORY ( 'detail', '', ( #256 ) ) ;
#81 = DIRECTION ( 'NONE',  ( 0.000000000000000000, 0.000000000000000000, 1.000000000000000000 ) ) ;
#82 = DIRECTION ( 'NONE',  ( -0.000000000000000000, -0.000000000000000000, -1.000000000000000000 ) ) ;
#83 = DATE_AND_TIME ( #275, #300 ) ;
#84 = DIRECTION ( 'NONE',  ( -0.000000000000000000, -0.000000000000000000, -1.000000000000000000 ) ) ;
#85 = FACE_OUTER_BOUND ( 'NONE', #145, .T. ) ;
#86 = SECURITY_CLASSIFICATION_LEVEL ( 'unclassified' ) ;
#87 = FACE_OUTER_BOUND ( 'NONE', #265, .T. ) ;
#88 = ORIENTED_EDGE ( 'NONE', *, *, #277, .F. ) ;
#89 = CALENDAR_DATE ( 2022, 7, 7 ) ;
#90 = EDGE_LOOP ( 'NONE', ( #52, #165 ) ) ;
#91 = AXIS2_PLACEMENT_3D ( 'NONE', #274, #208, #35 ) ;
#92 = VERTEX_POINT ( 'NONE', #25 ) ;
#93 = PERSON ( 'NEURÈENÝ', 'NEURÈENÝ', 'NEURÈENÝ', ('NEURÈENÝ'), ('NEURÈENÝ'), ('NEURÈENÝ') ) ;
#94 = CARTESIAN_POINT ( 'NONE',  ( 3.299999999999999822, 0.000000000000000000, 4.999999999999991118 ) ) ;
#95 = EDGE_CURVE ( 'NONE', #140, #50, #177, .T. ) ;
#96 = ORIENTED_EDGE ( 'NONE', *, *, #3, .T. ) ;
#97 = AXIS2_PLACEMENT_3D ( 'NONE', #272, #59, #151 ) ;
#98 = DIRECTION ( 'NONE',  ( -1.000000000000000000, 1.224646799147353207E-16, 0.000000000000000000 ) ) ;
#99 = ORIENTED_EDGE ( 'NONE', *, *, #95, .T. ) ;
#100 = PLANE ( 'NONE',  #118 ) ;
#101 = DIRECTION ( 'NONE',  ( 1.000000000000000000, 0.000000000000000000, 0.000000000000000000 ) ) ;
#102 = SECURITY_CLASSIFICATION ( '', '', #86 ) ;
#103 = PERSON_AND_ORGANIZATION ( #93, #51 ) ;
#104 = DIRECTION ( 'NONE',  ( -1.000000000000000000, 0.000000000000000000, 0.000000000000000000 ) ) ;
#105 = CC_DESIGN_PERSON_AND_ORGANIZATION_ASSIGNMENT ( #68, #64, ( #54 ) ) ;
#106 = PERSON_AND_ORGANIZATION ( #93, #51 ) ;
#107 = LINE ( 'NONE', #247, #259 ) ;
#108 = PERSON_AND_ORGANIZATION_ROLE ( 'creator' ) ;
#109 = CARTESIAN_POINT ( 'NONE',  ( 0.000000000000000000, 0.000000000000000000, 5.199999999999982414 ) ) ;
#110 = DATE_AND_TIME ( #89, #11 ) ;
#111 = ADVANCED_FACE ( 'NONE', ( #283 ), #207, .F. ) ;
#112 = PERSON_AND_ORGANIZATION_ROLE ( 'classification_officer' ) ;
#113 = AXIS2_PLACEMENT_3D ( 'NONE', #290, #5, #98 ) ;
#114 = ORIENTED_EDGE ( 'NONE', *, *, #174, .F. ) ;
#115 = EDGE_CURVE ( 'NONE', #281, #237, #271, .T. ) ;
#116 = VERTEX_POINT ( 'NONE', #60 ) ;
#117 = CARTESIAN_POINT ( 'NONE',  ( 3.299999999999999822, 0.000000000000000000, 5.199999999999982414 ) ) ;
#118 = AXIS2_PLACEMENT_3D ( 'NONE', #198, #173, #37 ) ;
#119 = CC_DESIGN_APPROVAL ( #131, ( #102 ) ) ;
#120 = UNCERTAINTY_MEASURE_WITH_UNIT (LENGTH_MEASURE( 1.000000000000000082E-05 ), #235, 'distance_accuracy_value', 'NONE');
#121 = APPROVAL ( #203, 'NEURÈENÝ' ) ;
#122 = DIRECTION ( 'NONE',  ( 1.000000000000000000, 0.000000000000000000, 0.000000000000000000 ) ) ;
#123 = CYLINDRICAL_SURFACE ( 'NONE', #289, 6.000000000000000888 ) ;
#124 = VERTEX_POINT ( 'NONE', #65 ) ;
#125 = ORIENTED_EDGE ( 'NONE', *, *, #284, .F. ) ;
#126 = CARTESIAN_POINT ( 'NONE',  ( 0.000000000000000000, 0.000000000000000000, 0.000000000000000000 ) ) ;
#127 = PLANE ( 'NONE',  #76 ) ;
#128 = COORDINATED_UNIVERSAL_TIME_OFFSET ( 1, 0, .AHEAD. ) ;
#129 = AXIS2_PLACEMENT_3D ( 'NONE', #270, #252, #201 ) ;
#130 = CARTESIAN_POINT ( 'NONE',  ( 6.000000000000000888, 7.347880794884120722E-16, 5.000000000000000000 ) ) ;
#131 = APPROVAL ( #45, 'NEURÈENÝ' ) ;
#132 = APPROVAL_ROLE ( '' ) ;
#133 = DIRECTION ( 'NONE',  ( 0.000000000000000000, 0.000000000000000000, 1.000000000000000000 ) ) ;
#134 = APPROVAL_DATE_TIME ( #110, #187 ) ;
#135 = DIRECTION ( 'NONE',  ( 1.000000000000000000, 0.000000000000000000, -0.000000000000000000 ) ) ;
#136 = DATE_AND_TIME ( #273, #186 ) ;
#137 = AXIS2_PLACEMENT_3D ( 'NONE', #291, #84, #104 ) ;
#138 = AXIS2_PLACEMENT_3D ( 'NONE', #276, #13, #269 ) ;
#139 = APPROVAL_ROLE ( '' ) ;
#140 = VERTEX_POINT ( 'NONE', #154 ) ;
#141 = CIRCLE ( 'NONE', #4, 6.000000000000000888 ) ;
#142 = ORIENTED_EDGE ( 'NONE', *, *, #95, .F. ) ;
#143 = ORIENTED_EDGE ( 'NONE', *, *, #277, .T. ) ;
#144 = CARTESIAN_POINT ( 'NONE',  ( 0.000000000000000000, 0.000000000000000000, 5.000000000000000000 ) ) ;
#145 = EDGE_LOOP ( 'NONE', ( #307, #74 ) ) ;
#146 = DIRECTION ( 'NONE',  ( -0.000000000000000000, -0.000000000000000000, -1.000000000000000000 ) ) ;
#147 = PRODUCT_DEFINITION_SHAPE ( 'NONE', 'NONE',  #54 ) ;
#148 =( GEOMETRIC_REPRESENTATION_CONTEXT ( 3 ) GLOBAL_UNCERTAINTY_ASSIGNED_CONTEXT ( ( #120 ) ) GLOBAL_UNIT_ASSIGNED_CONTEXT ( ( #235, #297, #254 ) ) REPRESENTATION_CONTEXT ( 'NONE', 'WORKASPACE' ) );
#149 = ORIENTED_EDGE ( 'NONE', *, *, #70, .T. ) ;
#150 = ADVANCED_BREP_SHAPE_REPRESENTATION ( '2ea9', ( #44, #138 ), #148 ) ;
#151 = DIRECTION ( 'NONE',  ( 1.000000000000000000, 0.000000000000000000, 0.000000000000000000 ) ) ;
#152 = DATE_TIME_ROLE ( 'creation_date' ) ;
#153 = ADVANCED_FACE ( 'NONE', ( #43 ), #295, .T. ) ;
#154 = CARTESIAN_POINT ( 'NONE',  ( 3.100000000000000089, 3.796405077356794918E-16, 5.199999999999982414 ) ) ;
#155 = DIRECTION ( 'NONE',  ( 1.000000000000000000, 0.000000000000000000, 0.000000000000000000 ) ) ;
#156 = AXIS2_PLACEMENT_3D ( 'NONE', #301, #8, #292 ) ;
#157 = DIRECTION ( 'NONE',  ( 0.000000000000000000, 0.000000000000000000, 1.000000000000000000 ) ) ;
#158 = DATE_TIME_ROLE ( 'classification_date' ) ;
#159 = ORIENTED_EDGE ( 'NONE', *, *, #284, .T. ) ;
#160 = EDGE_CURVE ( 'NONE', #92, #124, #304, .T. ) ;
#161 = ORIENTED_EDGE ( 'NONE', *, *, #204, .T. ) ;
#162 = CC_DESIGN_APPROVAL ( #121, ( #54 ) ) ;
#163 = ORIENTED_EDGE ( 'NONE', *, *, #70, .F. ) ;
#164 = CC_DESIGN_PERSON_AND_ORGANIZATION_ASSIGNMENT ( #294, #112, ( #102 ) ) ;
#165 = ORIENTED_EDGE ( 'NONE', *, *, #160, .F. ) ;
#166 = LINE ( 'NONE', #53, #71 ) ;
#167 = AXIS2_PLACEMENT_3D ( 'NONE', #126, #81, #101 ) ;
#168 = ADVANCED_FACE ( 'NONE', ( #41 ), #100, .F. ) ;
#169 = DIRECTION ( 'NONE',  ( 1.000000000000000000, 0.000000000000000000, 0.000000000000000000 ) ) ;
#170 = ORIENTED_EDGE ( 'NONE', *, *, #49, .T. ) ;
#171 = LINE ( 'NONE', #241, #1 ) ;
#172 = VECTOR ( 'NONE', #199, 1000.000000000000000 ) ;
#173 = DIRECTION ( 'NONE',  ( 0.000000000000000000, 0.000000000000000000, 1.000000000000000000 ) ) ;
#174 = EDGE_CURVE ( 'NONE', #23, #116, #38, .T. ) ;
#175 = DIRECTION ( 'NONE',  ( -1.000000000000000000, 0.000000000000000000, 0.000000000000000000 ) ) ;
#176 = APPROVAL_DATE_TIME ( #83, #121 ) ;
#177 = CIRCLE ( 'NONE', #188, 0.1999999999999996503 ) ;
#178 = FACE_BOUND ( 'NONE', #243, .T. ) ;
#179 = COORDINATED_UNIVERSAL_TIME_OFFSET ( 1, 0, .AHEAD. ) ;
#180 = AXIS2_PLACEMENT_3D ( 'NONE', #225, #157, #233 ) ;
#181 = ADVANCED_FACE ( 'NONE', ( #178, #267 ), #182, .T. ) ;
#182 = PLANE ( 'NONE',  #19 ) ;
#183 = DIRECTION ( 'NONE',  ( -0.000000000000000000, -0.000000000000000000, -1.000000000000000000 ) ) ;
#184 = PERSON_AND_ORGANIZATION ( #93, #51 ) ;
#185 = ORIENTED_EDGE ( 'NONE', *, *, #287, .F. ) ;
#186 = LOCAL_TIME ( 14, 39, 47.00000000000000000, #66 ) ;
#187 = APPROVAL ( #299, 'NEURÈENÝ' ) ;
#188 = AXIS2_PLACEMENT_3D ( 'NONE', #117, #215, #191 ) ;
#189 = AXIS2_PLACEMENT_3D ( 'NONE', #109, #229, #268 ) ;
#190 = ORIENTED_EDGE ( 'NONE', *, *, #115, .F. ) ;
#191 = DIRECTION ( 'NONE',  ( 0.000000000000000000, 0.000000000000000000, -1.000000000000000000 ) ) ;
#192 = ORIENTED_EDGE ( 'NONE', *, *, #49, .F. ) ;
#193 = CIRCLE ( 'NONE', #97, 3.299999999999999822 ) ;
#194 = DIRECTION ( 'NONE',  ( 0.000000000000000000, 0.000000000000000000, 1.000000000000000000 ) ) ;
#195 = DIRECTION ( 'NONE',  ( 1.000000000000000000, 0.000000000000000000, 0.000000000000000000 ) ) ;
#196 = CARTESIAN_POINT ( 'NONE',  ( -3.100000000000000089, 0.000000000000000000, 505.0000000000000000 ) ) ;
#197 = CIRCLE ( 'NONE', #61, 3.299999999999999822 ) ;
#198 = CARTESIAN_POINT ( 'NONE',  ( 0.000000000000000000, 0.000000000000000000, 0.000000000000000000 ) ) ;
#199 = DIRECTION ( 'NONE',  ( -0.000000000000000000, -0.000000000000000000, -1.000000000000000000 ) ) ;
#200 = PERSON_AND_ORGANIZATION_ROLE ( 'design_supplier' ) ;
#201 = DIRECTION ( 'NONE',  ( 1.000000000000000000, 0.000000000000000000, 0.000000000000000000 ) ) ;
#202 = AXIS2_PLACEMENT_3D ( 'NONE', #286, #146, #30 ) ;
#203 = APPROVAL_STATUS ( 'not_yet_approved' ) ;
#204 = EDGE_CURVE ( 'NONE', #50, #306, #193, .T. ) ;
#205 = TOROIDAL_SURFACE ( 'NONE', #14, 3.299999999999999822, 0.2000000000000000111 ) ;
#206 = DIRECTION ( 'NONE',  ( 0.000000000000000000, 0.000000000000000000, 1.000000000000000000 ) ) ;
#207 = TOROIDAL_SURFACE ( 'NONE', #189, 3.299999999999999822, 0.2000000000000000111 ) ;
#208 = DIRECTION ( 'NONE',  ( 0.000000000000000000, 0.000000000000000000, 1.000000000000000000 ) ) ;
#209 = APPROVAL_PERSON_ORGANIZATION ( #248, #187, #10 ) ;
#210 = APPROVAL_DATE_TIME ( #236, #131 ) ;
#211 = ADVANCED_FACE ( 'NONE', ( #85 ), #127, .T. ) ;
#212 = ORIENTED_EDGE ( 'NONE', *, *, #220, .F. ) ;
#213 = AXIS2_PLACEMENT_3D ( 'NONE', #63, #67, #155 ) ;
#214 = EDGE_LOOP ( 'NONE', ( #258, #190, #149, #260 ) ) ;
#215 = DIRECTION ( 'NONE',  ( 0.000000000000000000, -1.000000000000000000, 0.000000000000000000 ) ) ;
#216 = APPROVAL_PERSON_ORGANIZATION ( #184, #131, #139 ) ;
#217 = FACE_OUTER_BOUND ( 'NONE', #78, .T. ) ;
#218 = DIRECTION ( 'NONE',  ( -1.000000000000000000, 0.000000000000000000, 0.000000000000000000 ) ) ;
#219 = CLOSED_SHELL ( 'NONE', ( #111, #36, #153, #29, #181, #168, #293, #211, #9 ) ) ;
#220 = EDGE_CURVE ( 'NONE', #116, #140, #249, .T. ) ;
#221 = CIRCLE ( 'NONE', #180, 3.100000000000000089 ) ;
#222 = FACE_OUTER_BOUND ( 'NONE', #214, .T. ) ;
#223 = DIRECTION ( 'NONE',  ( 0.000000000000000000, 0.000000000000000000, 1.000000000000000000 ) ) ;
#224 = CC_DESIGN_DATE_AND_TIME_ASSIGNMENT ( #227, #152, ( #54 ) ) ;
#225 = CARTESIAN_POINT ( 'NONE',  ( 0.000000000000000000, 0.000000000000000000, 5.199999999999982414 ) ) ;
#226 = CARTESIAN_POINT ( 'NONE',  ( 0.000000000000000000, 0.000000000000000000, 505.0000000000000000 ) ) ;
#227 = DATE_AND_TIME ( #231, #34 ) ;
#228 = AXIS2_PLACEMENT_3D ( 'NONE', #7, #82, #175 ) ;
#229 = DIRECTION ( 'NONE',  ( 0.000000000000000000, 0.000000000000000000, 1.000000000000000000 ) ) ;
#230 = EDGE_CURVE ( 'NONE', #140, #72, #221, .T. ) ;
#231 = CALENDAR_DATE ( 2022, 7, 7 ) ;
#232 = CARTESIAN_POINT ( 'NONE',  ( 0.000000000000000000, 0.000000000000000000, 0.000000000000000000 ) ) ;
#233 = DIRECTION ( 'NONE',  ( 1.000000000000000000, 0.000000000000000000, 0.000000000000000000 ) ) ;
#234 = COORDINATED_UNIVERSAL_TIME_OFFSET ( 1, 0, .AHEAD. ) ;
#235 =( LENGTH_UNIT ( ) NAMED_UNIT ( * ) SI_UNIT ( .MILLI., .METRE. ) );
#236 = DATE_AND_TIME ( #20, #257 ) ;
#237 = VERTEX_POINT ( 'NONE', #130 ) ;
#238 = APPROVAL_PERSON_ORGANIZATION ( #106, #121, #132 ) ;
#239 = FACE_OUTER_BOUND ( 'NONE', #278, .T. ) ;
#240 = CC_DESIGN_PERSON_AND_ORGANIZATION_ASSIGNMENT ( #253, #250, ( #256 ) ) ;
#241 = CARTESIAN_POINT ( 'NONE',  ( -6.000000000000000888, 0.000000000000000000, 5.000000000000000000 ) ) ;
#242 = EDGE_LOOP ( 'NONE', ( #73, #170, #282, #142 ) ) ;
#243 = EDGE_LOOP ( 'NONE', ( #161, #32 ) ) ;
#244 = CC_DESIGN_DATE_AND_TIME_ASSIGNMENT ( #136, #158, ( #102 ) ) ;
#245 = CIRCLE ( 'NONE', #156, 3.100000000000000089 ) ;
#246 = CYLINDRICAL_SURFACE ( 'NONE', #228, 3.100000000000000089 ) ;
#247 = CARTESIAN_POINT ( 'NONE',  ( -3.100000000000000089, 0.000000000000000000, 505.0000000000000000 ) ) ;
#248 = PERSON_AND_ORGANIZATION ( #93, #51 ) ;
#249 = LINE ( 'NONE', #251, #172 ) ;
#250 = PERSON_AND_ORGANIZATION_ROLE ( 'design_owner' ) ;
#251 = CARTESIAN_POINT ( 'NONE',  ( 3.100000000000000089, 3.796405077356794918E-16, 505.0000000000000000 ) ) ;
#252 = DIRECTION ( 'NONE',  ( 0.000000000000000000, 0.000000000000000000, 1.000000000000000000 ) ) ;
#253 = PERSON_AND_ORGANIZATION ( #93, #51 ) ;
#254 =( NAMED_UNIT ( * ) SI_UNIT ( $, .STERADIAN. ) SOLID_ANGLE_UNIT ( ) );
#255 = EDGE_CURVE ( 'NONE', #124, #92, #141, .T. ) ;
#256 = PRODUCT ( '2ea9', '2ea9', '', ( #302 ) ) ;
#257 = LOCAL_TIME ( 14, 39, 47.00000000000000000, #234 ) ;
#258 = ORIENTED_EDGE ( 'NONE', *, *, #62, .F. ) ;
#259 = VECTOR ( 'NONE', #183, 1000.000000000000000 ) ;
#260 = ORIENTED_EDGE ( 'NONE', *, *, #255, .T. ) ;
#261 = ORIENTED_EDGE ( 'NONE', *, *, #115, .T. ) ;
#262 = CARTESIAN_POINT ( 'NONE',  ( 0.000000000000000000, 0.000000000000000000, 5.199999999999982414 ) ) ;
#263 = CC_DESIGN_SECURITY_CLASSIFICATION ( #102, ( #33 ) ) ;
#264 = DIRECTION ( 'NONE',  ( -0.000000000000000000, -0.000000000000000000, -1.000000000000000000 ) ) ;
#265 = EDGE_LOOP ( 'NONE', ( #212, #114, #143, #96 ) ) ;
#266 = DIRECTION ( 'NONE',  ( -0.000000000000000000, -0.000000000000000000, -1.000000000000000000 ) ) ;
#267 = FACE_OUTER_BOUND ( 'NONE', #22, .T. ) ;
#268 = DIRECTION ( 'NONE',  ( 1.000000000000000000, 0.000000000000000000, 0.000000000000000000 ) ) ;
#269 = DIRECTION ( 'NONE',  ( 1.000000000000000000, 0.000000000000000000, 0.000000000000000000 ) ) ;
#270 = CARTESIAN_POINT ( 'NONE',  ( 0.000000000000000000, 0.000000000000000000, 5.000000000000000000 ) ) ;
#271 = CIRCLE ( 'NONE', #129, 6.000000000000000888 ) ;
#272 = CARTESIAN_POINT ( 'NONE',  ( 0.000000000000000000, 0.000000000000000000, 5.000000000000000000 ) ) ;
#273 = CALENDAR_DATE ( 2022, 7, 7 ) ;
#274 = CARTESIAN_POINT ( 'NONE',  ( 0.000000000000000000, 0.000000000000000000, 5.000000000000000000 ) ) ;
#275 = CALENDAR_DATE ( 2022, 7, 7 ) ;
#276 = CARTESIAN_POINT ( 'NONE',  ( 0.000000000000000000, 0.000000000000000000, 0.000000000000000000 ) ) ;
#277 = EDGE_CURVE ( 'NONE', #23, #72, #107, .T. ) ;
#278 = EDGE_LOOP ( 'NONE', ( #192, #55, #99, #77 ) ) ;
#279 = AXIS2_PLACEMENT_3D ( 'NONE', #262, #223, #169 ) ;
#280 = DESIGN_CONTEXT ( 'detailed design', #31, 'design' ) ;
#281 = VERTEX_POINT ( 'NONE', #298 ) ;
#282 = ORIENTED_EDGE ( 'NONE', *, *, #204, .F. ) ;
#283 = FACE_OUTER_BOUND ( 'NONE', #242, .T. ) ;
#284 = EDGE_CURVE ( 'NONE', #237, #281, #56, .T. ) ;
#285 = CARTESIAN_POINT ( 'NONE',  ( 0.000000000000000000, 0.000000000000000000, 5.000000000000000000 ) ) ;
#286 = CARTESIAN_POINT ( 'NONE',  ( 0.000000000000000000, 0.000000000000000000, 505.0000000000000000 ) ) ;
#287 = EDGE_CURVE ( 'NONE', #116, #23, #245, .T. ) ;
#288 = ORIENTED_EDGE ( 'NONE', *, *, #62, .T. ) ;
#289 = AXIS2_PLACEMENT_3D ( 'NONE', #144, #264, #218 ) ;
#290 = CARTESIAN_POINT ( 'NONE',  ( -3.299999999999999822, 4.041334437186265510E-16, 5.199999999999982414 ) ) ;
#291 = CARTESIAN_POINT ( 'NONE',  ( 0.000000000000000000, 0.000000000000000000, 5.000000000000000000 ) ) ;
#292 = DIRECTION ( 'NONE',  ( 1.000000000000000000, 0.000000000000000000, 0.000000000000000000 ) ) ;
#293 = ADVANCED_FACE ( 'NONE', ( #87 ), #246, .T. ) ;
#294 = PERSON_AND_ORGANIZATION ( #93, #51 ) ;
#295 = CYLINDRICAL_SURFACE ( 'NONE', #137, 6.000000000000000888 ) ;
#296 = CIRCLE ( 'NONE', #279, 3.100000000000000089 ) ;
#297 =( NAMED_UNIT ( * ) PLANE_ANGLE_UNIT ( ) SI_UNIT ( $, .RADIAN. ) );
#298 = CARTESIAN_POINT ( 'NONE',  ( -6.000000000000000888, 0.000000000000000000, 5.000000000000000000 ) ) ;
#299 = APPROVAL_STATUS ( 'not_yet_approved' ) ;
#300 = LOCAL_TIME ( 14, 39, 47.00000000000000000, #128 ) ;
#301 = CARTESIAN_POINT ( 'NONE',  ( 0.000000000000000000, 0.000000000000000000, 505.0000000000000000 ) ) ;
#302 = MECHANICAL_CONTEXT ( 'NONE', #26, 'mechanical' ) ;
#303 = APPLICATION_PROTOCOL_DEFINITION ( 'international standard', 'config_control_design', 1994, #26 ) ;
#304 = CIRCLE ( 'NONE', #167, 6.000000000000000888 ) ;
#305 = ORIENTED_EDGE ( 'NONE', *, *, #160, .T. ) ;
#306 = VERTEX_POINT ( 'NONE', #46 ) ;
#307 = ORIENTED_EDGE ( 'NONE', *, *, #174, .T. ) ;
ENDSEC;
END-ISO-10303-21;
