ISO-10303-21;
HEADER;
FILE_DESCRIPTION (( 'STEP AP203' ),
    '1' );
FILE_NAME ('fb91.STEP',
    '2023-02-12T10:37:34',
    ( '' ),
    ( '' ),
    'SwSTEP 2.0',
    'SolidWorks 2019',
    '' );
FILE_SCHEMA (( 'CONFIG_CONTROL_DESIGN' ));
ENDSEC;

DATA;
#1 = PRODUCT ( 'fb91', 'fb91', '', ( #208 ) ) ;
#2 = DIRECTION ( 'NONE',  ( 0.000000000000000000, 0.000000000000000000, 1.000000000000000000 ) ) ;
#3 = ORIENTED_EDGE ( 'NONE', *, *, #67, .F. ) ;
#4 = CIRCLE ( 'NONE', #61, 12.00000000000000178 ) ;
#5 = FACE_OUTER_BOUND ( 'NONE', #207, .T. ) ;
#6 = ORIENTED_EDGE ( 'NONE', *, *, #126, .F. ) ;
#7 = FACE_OUTER_BOUND ( 'NONE', #24, .T. ) ;
#8 = ORIENTED_EDGE ( 'NONE', *, *, #54, .F. ) ;
#9 = CYLINDRICAL_SURFACE ( 'NONE', #251, 9.000000000000001776 ) ;
#10 = CARTESIAN_POINT ( 'NONE',  ( 12.00000000000000178, 1.469576158976824144E-15, 7.000000000000000000 ) ) ;
#11 = PERSON_AND_ORGANIZATION_ROLE ( 'design_supplier' ) ;
#12 = ORIENTED_EDGE ( 'NONE', *, *, #196, .F. ) ;
#13 = PERSON_AND_ORGANIZATION ( #245, #17 ) ;
#14 = ORIENTED_EDGE ( 'NONE', *, *, #67, .T. ) ;
#15 = CIRCLE ( 'NONE', #21, 12.00000000000000178 ) ;
#16 = FACE_OUTER_BOUND ( 'NONE', #81, .T. ) ;
#17 = ORGANIZATION ( 'NEURÈENÝ', 'NEURÈENÝ', '' ) ;
#18 = EDGE_CURVE ( 'NONE', #199, #141, #123, .T. ) ;
#19 = DIRECTION ( 'NONE',  ( 0.000000000000000000, 0.000000000000000000, 1.000000000000000000 ) ) ;
#20 = CARTESIAN_POINT ( 'NONE',  ( 0.000000000000000000, 0.000000000000000000, 7.000000000000000000 ) ) ;
#21 = AXIS2_PLACEMENT_3D ( 'NONE', #52, #147, #130 ) ;
#22 = AXIS2_PLACEMENT_3D ( 'NONE', #62, #19, #197 ) ;
#23 = FACE_OUTER_BOUND ( 'NONE', #216, .T. ) ;
#24 = EDGE_LOOP ( 'NONE', ( #105, #203, #179, #8 ) ) ;
#25 = CC_DESIGN_PERSON_AND_ORGANIZATION_ASSIGNMENT ( #165, #113, ( #231 ) ) ;
#26 = DIRECTION ( 'NONE',  ( 0.000000000000000000, 0.000000000000000000, 1.000000000000000000 ) ) ;
#27 = CARTESIAN_POINT ( 'NONE',  ( 0.000000000000000000, 0.000000000000000000, 315.0000000000000000 ) ) ;
#28 = ORIENTED_EDGE ( 'NONE', *, *, #101, .F. ) ;
#29 = APPROVAL_STATUS ( 'not_yet_approved' ) ;
#30 = ADVANCED_FACE ( 'NONE', ( #16 ), #94, .T. ) ;
#31 = VERTEX_POINT ( 'NONE', #10 ) ;
#32 = APPROVAL_STATUS ( 'not_yet_approved' ) ;
#33 = VERTEX_POINT ( 'NONE', #135 ) ;
#34 = SHAPE_DEFINITION_REPRESENTATION ( #118, #200 ) ;
#35 = ORIENTED_EDGE ( 'NONE', *, *, #93, .T. ) ;
#36 = CC_DESIGN_PERSON_AND_ORGANIZATION_ASSIGNMENT ( #189, #37, ( #1 ) ) ;
#37 = PERSON_AND_ORGANIZATION_ROLE ( 'design_owner' ) ;
#38 = APPROVAL_PERSON_ORGANIZATION ( #185, #132, #149 ) ;
#39 = PRODUCT_RELATED_PRODUCT_CATEGORY ( 'detail', '', ( #1 ) ) ;
#40 = EDGE_CURVE ( 'NONE', #33, #44, #137, .T. ) ;
#41 = DIRECTION ( 'NONE',  ( -0.000000000000000000, -0.000000000000000000, -1.000000000000000000 ) ) ;
#42 = CARTESIAN_POINT ( 'NONE',  ( 9.000000000000001776, 1.102182119232617911E-15, 315.0000000000000000 ) ) ;
#43 =( NAMED_UNIT ( * ) PLANE_ANGLE_UNIT ( ) SI_UNIT ( $, .RADIAN. ) );
#44 = VERTEX_POINT ( 'NONE', #227 ) ;
#45 = CARTESIAN_POINT ( 'NONE',  ( 0.000000000000000000, 0.000000000000000000, 7.000000000000000000 ) ) ;
#46 = DIRECTION ( 'NONE',  ( -0.000000000000000000, -0.000000000000000000, -1.000000000000000000 ) ) ;
#47 = ORIENTED_EDGE ( 'NONE', *, *, #254, .T. ) ;
#48 = DIRECTION ( 'NONE',  ( -0.000000000000000000, -0.000000000000000000, -1.000000000000000000 ) ) ;
#49 = AXIS2_PLACEMENT_3D ( 'NONE', #150, #225, #170 ) ;
#50 = CALENDAR_DATE ( 2023, 12, 2 ) ;
#51 = ORIENTED_EDGE ( 'NONE', *, *, #59, .T. ) ;
#52 = CARTESIAN_POINT ( 'NONE',  ( 0.000000000000000000, 0.000000000000000000, 0.000000000000000000 ) ) ;
#53 = DATE_AND_TIME ( #228, #79 ) ;
#54 = EDGE_CURVE ( 'NONE', #199, #44, #166, .T. ) ;
#55 = AXIS2_PLACEMENT_3D ( 'NONE', #27, #64, #104 ) ;
#56 = PERSON_AND_ORGANIZATION ( #245, #17 ) ;
#57 = VECTOR ( 'NONE', #41, 1000.000000000000000 ) ;
#58 =( GEOMETRIC_REPRESENTATION_CONTEXT ( 3 ) GLOBAL_UNCERTAINTY_ASSIGNED_CONTEXT ( ( #70 ) ) GLOBAL_UNIT_ASSIGNED_CONTEXT ( ( #159, #43, #222 ) ) REPRESENTATION_CONTEXT ( 'NONE', 'WORKASPACE' ) );
#59 = EDGE_CURVE ( 'NONE', #141, #199, #230, .T. ) ;
#60 = CARTESIAN_POINT ( 'NONE',  ( -12.00000000000000178, 0.000000000000000000, 7.000000000000000000 ) ) ;
#61 = AXIS2_PLACEMENT_3D ( 'NONE', #241, #26, #139 ) ;
#62 = CARTESIAN_POINT ( 'NONE',  ( 0.000000000000000000, 0.000000000000000000, 0.000000000000000000 ) ) ;
#63 = EDGE_LOOP ( 'NONE', ( #209, #108, #188, #47 ) ) ;
#64 = DIRECTION ( 'NONE',  ( 0.000000000000000000, 0.000000000000000000, 1.000000000000000000 ) ) ;
#65 = DIRECTION ( 'NONE',  ( -1.000000000000000000, 0.000000000000000000, 0.000000000000000000 ) ) ;
#66 = APPROVAL_PERSON_ORGANIZATION ( #13, #96, #187 ) ;
#67 = EDGE_CURVE ( 'NONE', #145, #72, #15, .T. ) ;
#68 = DATE_AND_TIME ( #109, #143 ) ;
#69 = DIRECTION ( 'NONE',  ( 1.000000000000000000, 0.000000000000000000, 0.000000000000000000 ) ) ;
#70 = UNCERTAINTY_MEASURE_WITH_UNIT (LENGTH_MEASURE( 1.000000000000000082E-05 ), #159, 'distance_accuracy_value', 'NONE');
#71 = CALENDAR_DATE ( 2023, 12, 2 ) ;
#72 = VERTEX_POINT ( 'NONE', #223 ) ;
#73 = COORDINATED_UNIVERSAL_TIME_OFFSET ( 1, 0, .AHEAD. ) ;
#74 = DIRECTION ( 'NONE',  ( 0.000000000000000000, 0.000000000000000000, 1.000000000000000000 ) ) ;
#75 = PERSON_AND_ORGANIZATION ( #245, #17 ) ;
#76 = DESIGN_CONTEXT ( 'detailed design', #153, 'design' ) ;
#77 = AXIS2_PLACEMENT_3D ( 'NONE', #244, #74, #69 ) ;
#78 = EDGE_CURVE ( 'NONE', #141, #33, #121, .T. ) ;
#79 = LOCAL_TIME ( 11, 37, 34.00000000000000000, #146 ) ;
#80 = CARTESIAN_POINT ( 'NONE',  ( -12.00000000000000178, 0.000000000000000000, 7.000000000000000000 ) ) ;
#81 = EDGE_LOOP ( 'NONE', ( #28, #12, #112, #35 ) ) ;
#82 = CC_DESIGN_PERSON_AND_ORGANIZATION_ASSIGNMENT ( #56, #167, ( #99 ) ) ;
#83 = DIRECTION ( 'NONE',  ( 1.000000000000000000, 0.000000000000000000, 0.000000000000000000 ) ) ;
#84 = PLANE ( 'NONE',  #117 ) ;
#85 = CARTESIAN_POINT ( 'NONE',  ( 0.000000000000000000, 0.000000000000000000, 315.0000000000000000 ) ) ;
#86 = EDGE_LOOP ( 'NONE', ( #163, #110 ) ) ;
#87 = CARTESIAN_POINT ( 'NONE',  ( 9.000000000000001776, 1.102182119232617911E-15, 315.0000000000000000 ) ) ;
#88 = ORIENTED_EDGE ( 'NONE', *, *, #126, .T. ) ;
#89 = SECURITY_CLASSIFICATION_LEVEL ( 'unclassified' ) ;
#90 = CARTESIAN_POINT ( 'NONE',  ( 0.000000000000000000, 0.000000000000000000, 315.0000000000000000 ) ) ;
#91 = APPROVAL_DATE_TIME ( #68, #239 ) ;
#92 = ORIENTED_EDGE ( 'NONE', *, *, #196, .T. ) ;
#93 = EDGE_CURVE ( 'NONE', #72, #145, #97, .T. ) ;
#94 = CYLINDRICAL_SURFACE ( 'NONE', #255, 12.00000000000000178 ) ;
#95 = PERSON_AND_ORGANIZATION ( #245, #17 ) ;
#96 = APPROVAL ( #32, 'NEURÈENÝ' ) ;
#97 = CIRCLE ( 'NONE', #162, 12.00000000000000178 ) ;
#98 = AXIS2_PLACEMENT_3D ( 'NONE', #180, #202, #176 ) ;
#99 = SECURITY_CLASSIFICATION ( '', '', #89 ) ;
#100 = CARTESIAN_POINT ( 'NONE',  ( 12.00000000000000178, 1.469576158976824144E-15, 7.000000000000000000 ) ) ;
#101 = EDGE_CURVE ( 'NONE', #31, #145, #140, .T. ) ;
#102 = DIRECTION ( 'NONE',  ( 0.000000000000000000, 0.000000000000000000, 1.000000000000000000 ) ) ;
#103 = CIRCLE ( 'NONE', #206, 9.000000000000001776 ) ;
#104 = DIRECTION ( 'NONE',  ( 1.000000000000000000, 0.000000000000000000, -0.000000000000000000 ) ) ;
#105 = ORIENTED_EDGE ( 'NONE', *, *, #59, .F. ) ;
#106 = FACE_OUTER_BOUND ( 'NONE', #133, .T. ) ;
#107 = DIRECTION ( 'NONE',  ( 0.000000000000000000, 0.000000000000000000, 1.000000000000000000 ) ) ;
#108 = ORIENTED_EDGE ( 'NONE', *, *, #18, .F. ) ;
#109 = CALENDAR_DATE ( 2023, 12, 2 ) ;
#110 = ORIENTED_EDGE ( 'NONE', *, *, #40, .F. ) ;
#111 = APPROVAL_ROLE ( '' ) ;
#112 = ORIENTED_EDGE ( 'NONE', *, *, #120, .T. ) ;
#113 = PERSON_AND_ORGANIZATION_ROLE ( 'creator' ) ;
#114 = ORIENTED_EDGE ( 'NONE', *, *, #101, .T. ) ;
#115 = DATE_AND_TIME ( #71, #174 ) ;
#116 = ADVANCED_FACE ( 'NONE', ( #5 ), #160, .T. ) ;
#117 = AXIS2_PLACEMENT_3D ( 'NONE', #138, #2, #201 ) ;
#118 = PRODUCT_DEFINITION_SHAPE ( 'NONE', 'NONE',  #231 ) ;
#119 = DIRECTION ( 'NONE',  ( -0.000000000000000000, -0.000000000000000000, -1.000000000000000000 ) ) ;
#120 = EDGE_CURVE ( 'NONE', #129, #72, #161, .T. ) ;
#121 = LINE ( 'NONE', #87, #57 ) ;
#122 = CARTESIAN_POINT ( 'NONE',  ( 12.00000000000000178, 1.469576158976824144E-15, 0.000000000000000000 ) ) ;
#123 = CIRCLE ( 'NONE', #248, 9.000000000000001776 ) ;
#124 = ORIENTED_EDGE ( 'NONE', *, *, #120, .F. ) ;
#125 = CC_DESIGN_APPROVAL ( #239, ( #231 ) ) ;
#126 = EDGE_CURVE ( 'NONE', #31, #129, #234, .T. ) ;
#127 = CARTESIAN_POINT ( 'NONE',  ( 0.000000000000000000, 0.000000000000000000, 0.000000000000000000 ) ) ;
#128 = DIRECTION ( 'NONE',  ( 0.000000000000000000, 0.000000000000000000, 1.000000000000000000 ) ) ;
#129 = VERTEX_POINT ( 'NONE', #80 ) ;
#130 = DIRECTION ( 'NONE',  ( 1.000000000000000000, 0.000000000000000000, 0.000000000000000000 ) ) ;
#131 = DATE_TIME_ROLE ( 'classification_date' ) ;
#132 = APPROVAL ( #134, 'NEURÈENÝ' ) ;
#133 = EDGE_LOOP ( 'NONE', ( #92, #88 ) ) ;
#134 = APPROVAL_STATUS ( 'not_yet_approved' ) ;
#135 = CARTESIAN_POINT ( 'NONE',  ( 9.000000000000001776, 1.102182119232617911E-15, 7.000000000000000000 ) ) ;
#136 = APPLICATION_CONTEXT ( 'configuration controlled 3d designs of mechanical parts and assemblies' ) ;
#137 = CIRCLE ( 'NONE', #49, 9.000000000000001776 ) ;
#138 = CARTESIAN_POINT ( 'NONE',  ( 0.000000000000000000, 0.000000000000000000, 7.000000000000000000 ) ) ;
#139 = DIRECTION ( 'NONE',  ( 1.000000000000000000, 0.000000000000000000, 0.000000000000000000 ) ) ;
#140 = LINE ( 'NONE', #100, #172 ) ;
#141 = VERTEX_POINT ( 'NONE', #42 ) ;
#142 = DIRECTION ( 'NONE',  ( 1.000000000000000000, 0.000000000000000000, 0.000000000000000000 ) ) ;
#143 = LOCAL_TIME ( 11, 37, 34.00000000000000000, #229 ) ;
#144 = DIRECTION ( 'NONE',  ( -1.000000000000000000, 0.000000000000000000, 0.000000000000000000 ) ) ;
#145 = VERTEX_POINT ( 'NONE', #122 ) ;
#146 = COORDINATED_UNIVERSAL_TIME_OFFSET ( 1, 0, .AHEAD. ) ;
#147 = DIRECTION ( 'NONE',  ( 0.000000000000000000, 0.000000000000000000, 1.000000000000000000 ) ) ;
#148 = CC_DESIGN_DATE_AND_TIME_ASSIGNMENT ( #171, #131, ( #99 ) ) ;
#149 = APPROVAL_ROLE ( '' ) ;
#150 = CARTESIAN_POINT ( 'NONE',  ( 0.000000000000000000, 0.000000000000000000, 7.000000000000000000 ) ) ;
#151 = DATE_AND_TIME ( #252, #158 ) ;
#152 = CARTESIAN_POINT ( 'NONE',  ( -9.000000000000001776, 0.000000000000000000, 315.0000000000000000 ) ) ;
#153 = APPLICATION_CONTEXT ( 'configuration controlled 3d designs of mechanical parts and assemblies' ) ;
#154 = APPLICATION_PROTOCOL_DEFINITION ( 'international standard', 'config_control_design', 1994, #136 ) ;
#155 = DATE_TIME_ROLE ( 'creation_date' ) ;
#156 = AXIS2_PLACEMENT_3D ( 'NONE', #45, #128, #142 ) ;
#157 = CC_DESIGN_PERSON_AND_ORGANIZATION_ASSIGNMENT ( #95, #249, ( #164 ) ) ;
#158 = LOCAL_TIME ( 11, 37, 34.00000000000000000, #73 ) ;
#159 =( LENGTH_UNIT ( ) NAMED_UNIT ( * ) SI_UNIT ( .MILLI., .METRE. ) );
#160 = PLANE ( 'NONE',  #55 ) ;
#161 = LINE ( 'NONE', #60, #193 ) ;
#162 = AXIS2_PLACEMENT_3D ( 'NONE', #127, #107, #178 ) ;
#163 = ORIENTED_EDGE ( 'NONE', *, *, #254, .F. ) ;
#164 = PRODUCT_DEFINITION_FORMATION_WITH_SPECIFIED_SOURCE ( 'LIBOVOLNÝ', '', #1, .NOT_KNOWN. ) ;
#165 = PERSON_AND_ORGANIZATION ( #245, #17 ) ;
#166 = LINE ( 'NONE', #152, #204 ) ;
#167 = PERSON_AND_ORGANIZATION_ROLE ( 'classification_officer' ) ;
#168 = DIRECTION ( 'NONE',  ( 0.000000000000000000, 0.000000000000000000, 1.000000000000000000 ) ) ;
#169 = COORDINATED_UNIVERSAL_TIME_OFFSET ( 1, 0, .AHEAD. ) ;
#170 = DIRECTION ( 'NONE',  ( 1.000000000000000000, 0.000000000000000000, 0.000000000000000000 ) ) ;
#171 = DATE_AND_TIME ( #50, #242 ) ;
#172 = VECTOR ( 'NONE', #119, 1000.000000000000000 ) ;
#173 = CC_DESIGN_DATE_AND_TIME_ASSIGNMENT ( #53, #155, ( #231 ) ) ;
#174 = LOCAL_TIME ( 11, 37, 34.00000000000000000, #169 ) ;
#175 = ADVANCED_FACE ( 'NONE', ( #194 ), #181, .T. ) ;
#176 = DIRECTION ( 'NONE',  ( -1.000000000000000000, 0.000000000000000000, 0.000000000000000000 ) ) ;
#177 = ADVANCED_FACE ( 'NONE', ( #218, #106 ), #84, .T. ) ;
#178 = DIRECTION ( 'NONE',  ( 1.000000000000000000, 0.000000000000000000, 0.000000000000000000 ) ) ;
#179 = ORIENTED_EDGE ( 'NONE', *, *, #40, .T. ) ;
#180 = CARTESIAN_POINT ( 'NONE',  ( 0.000000000000000000, 0.000000000000000000, 315.0000000000000000 ) ) ;
#181 = CYLINDRICAL_SURFACE ( 'NONE', #98, 9.000000000000001776 ) ;
#182 = CC_DESIGN_PERSON_AND_ORGANIZATION_ASSIGNMENT ( #243, #11, ( #164 ) ) ;
#183 = DIRECTION ( 'NONE',  ( -1.000000000000000000, 0.000000000000000000, 0.000000000000000000 ) ) ;
#184 = CC_DESIGN_SECURITY_CLASSIFICATION ( #99, ( #164 ) ) ;
#185 = PERSON_AND_ORGANIZATION ( #245, #17 ) ;
#186 = ORIENTED_EDGE ( 'NONE', *, *, #18, .T. ) ;
#187 = APPROVAL_ROLE ( '' ) ;
#188 = ORIENTED_EDGE ( 'NONE', *, *, #54, .T. ) ;
#189 = PERSON_AND_ORGANIZATION ( #245, #17 ) ;
#190 = EDGE_LOOP ( 'NONE', ( #240, #3 ) ) ;
#191 = APPROVAL_DATE_TIME ( #115, #132 ) ;
#192 = CARTESIAN_POINT ( 'NONE',  ( 0.000000000000000000, 0.000000000000000000, 0.000000000000000000 ) ) ;
#193 = VECTOR ( 'NONE', #46, 1000.000000000000000 ) ;
#194 = FACE_OUTER_BOUND ( 'NONE', #63, .T. ) ;
#195 = DIRECTION ( 'NONE',  ( -0.000000000000000000, -0.000000000000000000, -1.000000000000000000 ) ) ;
#196 = EDGE_CURVE ( 'NONE', #129, #31, #4, .T. ) ;
#197 = DIRECTION ( 'NONE',  ( 1.000000000000000000, 0.000000000000000000, -0.000000000000000000 ) ) ;
#198 = CC_DESIGN_APPROVAL ( #96, ( #99 ) ) ;
#199 = VERTEX_POINT ( 'NONE', #238 ) ;
#200 = ADVANCED_BREP_SHAPE_REPRESENTATION ( 'fb91', ( #219, #220 ), #58 ) ;
#201 = DIRECTION ( 'NONE',  ( 1.000000000000000000, 0.000000000000000000, -0.000000000000000000 ) ) ;
#202 = DIRECTION ( 'NONE',  ( -0.000000000000000000, -0.000000000000000000, -1.000000000000000000 ) ) ;
#203 = ORIENTED_EDGE ( 'NONE', *, *, #78, .T. ) ;
#204 = VECTOR ( 'NONE', #250, 1000.000000000000000 ) ;
#205 = APPLICATION_PROTOCOL_DEFINITION ( 'international standard', 'config_control_design', 1994, #153 ) ;
#206 = AXIS2_PLACEMENT_3D ( 'NONE', #20, #102, #83 ) ;
#207 = EDGE_LOOP ( 'NONE', ( #186, #51 ) ) ;
#208 = MECHANICAL_CONTEXT ( 'NONE', #136, 'mechanical' ) ;
#209 = ORIENTED_EDGE ( 'NONE', *, *, #78, .F. ) ;
#210 = ADVANCED_FACE ( 'NONE', ( #7 ), #9, .T. ) ;
#211 = DIRECTION ( 'NONE',  ( 0.000000000000000000, 0.000000000000000000, 1.000000000000000000 ) ) ;
#212 = CC_DESIGN_APPROVAL ( #132, ( #164 ) ) ;
#213 = FACE_OUTER_BOUND ( 'NONE', #190, .T. ) ;
#214 = CYLINDRICAL_SURFACE ( 'NONE', #235, 12.00000000000000178 ) ;
#215 = ADVANCED_FACE ( 'NONE', ( #213 ), #237, .F. ) ;
#216 = EDGE_LOOP ( 'NONE', ( #6, #114, #14, #124 ) ) ;
#217 = CLOSED_SHELL ( 'NONE', ( #210, #253, #30, #177, #215, #175, #116 ) ) ;
#218 = FACE_BOUND ( 'NONE', #86, .T. ) ;
#219 = MANIFOLD_SOLID_BREP ( 'Pøidat vysunutím3', #217 ) ;
#220 = AXIS2_PLACEMENT_3D ( 'NONE', #192, #211, #246 ) ;
#221 = CARTESIAN_POINT ( 'NONE',  ( 0.000000000000000000, 0.000000000000000000, 7.000000000000000000 ) ) ;
#222 =( NAMED_UNIT ( * ) SI_UNIT ( $, .STERADIAN. ) SOLID_ANGLE_UNIT ( ) );
#223 = CARTESIAN_POINT ( 'NONE',  ( -12.00000000000000178, 0.000000000000000000, 0.000000000000000000 ) ) ;
#224 = COORDINATED_UNIVERSAL_TIME_OFFSET ( 1, 0, .AHEAD. ) ;
#225 = DIRECTION ( 'NONE',  ( 0.000000000000000000, 0.000000000000000000, 1.000000000000000000 ) ) ;
#226 = APPROVAL_DATE_TIME ( #151, #96 ) ;
#227 = CARTESIAN_POINT ( 'NONE',  ( -9.000000000000001776, 0.000000000000000000, 7.000000000000000000 ) ) ;
#228 = CALENDAR_DATE ( 2023, 12, 2 ) ;
#229 = COORDINATED_UNIVERSAL_TIME_OFFSET ( 1, 0, .AHEAD. ) ;
#230 = CIRCLE ( 'NONE', #77, 9.000000000000001776 ) ;
#231 = PRODUCT_DEFINITION ( 'NEZNÁMÝ', '', #164, #76 ) ;
#232 = APPROVAL_PERSON_ORGANIZATION ( #75, #239, #111 ) ;
#233 = CARTESIAN_POINT ( 'NONE',  ( 0.000000000000000000, 0.000000000000000000, 7.000000000000000000 ) ) ;
#234 = CIRCLE ( 'NONE', #156, 12.00000000000000178 ) ;
#235 = AXIS2_PLACEMENT_3D ( 'NONE', #233, #195, #144 ) ;
#236 = DIRECTION ( 'NONE',  ( -0.000000000000000000, -0.000000000000000000, -1.000000000000000000 ) ) ;
#237 = PLANE ( 'NONE',  #22 ) ;
#238 = CARTESIAN_POINT ( 'NONE',  ( -9.000000000000001776, 0.000000000000000000, 315.0000000000000000 ) ) ;
#239 = APPROVAL ( #29, 'NEURÈENÝ' ) ;
#240 = ORIENTED_EDGE ( 'NONE', *, *, #93, .F. ) ;
#241 = CARTESIAN_POINT ( 'NONE',  ( 0.000000000000000000, 0.000000000000000000, 7.000000000000000000 ) ) ;
#242 = LOCAL_TIME ( 11, 37, 34.00000000000000000, #224 ) ;
#243 = PERSON_AND_ORGANIZATION ( #245, #17 ) ;
#244 = CARTESIAN_POINT ( 'NONE',  ( 0.000000000000000000, 0.000000000000000000, 315.0000000000000000 ) ) ;
#245 = PERSON ( 'NEURÈENÝ', 'NEURÈENÝ', 'NEURÈENÝ', ('NEURÈENÝ'), ('NEURÈENÝ'), ('NEURÈENÝ') ) ;
#246 = DIRECTION ( 'NONE',  ( 1.000000000000000000, 0.000000000000000000, 0.000000000000000000 ) ) ;
#247 = DIRECTION ( 'NONE',  ( 1.000000000000000000, 0.000000000000000000, 0.000000000000000000 ) ) ;
#248 = AXIS2_PLACEMENT_3D ( 'NONE', #90, #168, #247 ) ;
#249 = PERSON_AND_ORGANIZATION_ROLE ( 'creator' ) ;
#250 = DIRECTION ( 'NONE',  ( -0.000000000000000000, -0.000000000000000000, -1.000000000000000000 ) ) ;
#251 = AXIS2_PLACEMENT_3D ( 'NONE', #85, #236, #65 ) ;
#252 = CALENDAR_DATE ( 2023, 12, 2 ) ;
#253 = ADVANCED_FACE ( 'NONE', ( #23 ), #214, .T. ) ;
#254 = EDGE_CURVE ( 'NONE', #44, #33, #103, .T. ) ;
#255 = AXIS2_PLACEMENT_3D ( 'NONE', #221, #48, #183 ) ;
ENDSEC;
END-ISO-10303-21;
