ISO-10303-21;
HEADER;
FILE_DESCRIPTION (( 'STEP AP203' ),
    '1' );
FILE_NAME ('2601.STEP',
    '2023-02-12T11:00:14',
    ( '' ),
    ( '' ),
    'SwSTEP 2.0',
    'SolidWorks 2019',
    '' );
FILE_SCHEMA (( 'CONFIG_CONTROL_DESIGN' ));
ENDSEC;

DATA;
#1 = COORDINATED_UNIVERSAL_TIME_OFFSET ( 1, 0, .AHEAD. ) ;
#2 = LINE ( 'NONE', #80, #178 ) ;
#3 = APPROVAL_PERSON_ORGANIZATION ( #204, #183, #99 ) ;
#4 = APPROVAL_DATE_TIME ( #162, #183 ) ;
#5 = PRODUCT ( '2601', '2601', '', ( #193 ) ) ;
#6 = ADVANCED_FACE ( 'NONE', ( #98 ), #56, .T. ) ;
#7 = VECTOR ( 'NONE', #125, 1000.000000000000000 ) ;
#8 = CYLINDRICAL_SURFACE ( 'NONE', #127, 8.000000000000000000 ) ;
#9 = APPROVAL_ROLE ( '' ) ;
#10 = PERSON_AND_ORGANIZATION_ROLE ( 'design_owner' ) ;
#11 = EDGE_CURVE ( 'NONE', #251, #110, #220, .T. ) ;
#12 = DIRECTION ( 'NONE',  ( 0.000000000000000000, 0.000000000000000000, 1.000000000000000000 ) ) ;
#13 = CYLINDRICAL_SURFACE ( 'NONE', #187, 8.000000000000000000 ) ;
#14 = CC_DESIGN_SECURITY_CLASSIFICATION ( #41, ( #35 ) ) ;
#15 = VERTEX_POINT ( 'NONE', #181 ) ;
#16 = CIRCLE ( 'NONE', #39, 5.000000000000000000 ) ;
#17 = APPROVAL_STATUS ( 'not_yet_approved' ) ;
#18 = SECURITY_CLASSIFICATION_LEVEL ( 'unclassified' ) ;
#19 = EDGE_LOOP ( 'NONE', ( #234, #134 ) ) ;
#20 = CC_DESIGN_DATE_AND_TIME_ASSIGNMENT ( #180, #77, ( #41 ) ) ;
#21 = DIRECTION ( 'NONE',  ( 0.000000000000000000, 0.000000000000000000, 1.000000000000000000 ) ) ;
#22 = FACE_OUTER_BOUND ( 'NONE', #250, .T. ) ;
#23 = ORIENTED_EDGE ( 'NONE', *, *, #143, .F. ) ;
#24 = COORDINATED_UNIVERSAL_TIME_OFFSET ( 1, 0, .AHEAD. ) ;
#25 = CIRCLE ( 'NONE', #92, 5.000000000000000000 ) ;
#26 = CC_DESIGN_PERSON_AND_ORGANIZATION_ASSIGNMENT ( #192, #224, ( #35 ) ) ;
#27 = PRODUCT_DEFINITION_SHAPE ( 'NONE', 'NONE',  #42 ) ;
#28 = PLANE ( 'NONE',  #144 ) ;
#29 = LINE ( 'NONE', #72, #132 ) ;
#30 = DIRECTION ( 'NONE',  ( -1.000000000000000000, 0.000000000000000000, 0.000000000000000000 ) ) ;
#31 = DIRECTION ( 'NONE',  ( 1.000000000000000000, 0.000000000000000000, 0.000000000000000000 ) ) ;
#32 = CLOSED_SHELL ( 'NONE', ( #155, #84, #194, #75, #168, #6, #62 ) ) ;
#33 = APPROVAL_DATE_TIME ( #65, #161 ) ;
#34 = ORIENTED_EDGE ( 'NONE', *, *, #53, .T. ) ;
#35 = PRODUCT_DEFINITION_FORMATION_WITH_SPECIFIED_SOURCE ( 'LIBOVOLNÝ', '', #5, .NOT_KNOWN. ) ;
#36 = APPLICATION_CONTEXT ( 'configuration controlled 3d designs of mechanical parts and assemblies' ) ;
#37 = DATE_AND_TIME ( #225, #121 ) ;
#38 = ORIENTED_EDGE ( 'NONE', *, *, #196, .T. ) ;
#39 = AXIS2_PLACEMENT_3D ( 'NONE', #128, #83, #124 ) ;
#40 = CARTESIAN_POINT ( 'NONE',  ( 0.000000000000000000, 0.000000000000000000, 0.000000000000000000 ) ) ;
#41 = SECURITY_CLASSIFICATION ( '', '', #18 ) ;
#42 = PRODUCT_DEFINITION ( 'NEZNÁMÝ', '', #35, #253 ) ;
#43 = CARTESIAN_POINT ( 'NONE',  ( -5.000000000000000000, 0.000000000000000000, 400.0000000000000000 ) ) ;
#44 = CARTESIAN_POINT ( 'NONE',  ( 8.000000000000000000, 9.797174393178825657E-16, 0.000000000000000000 ) ) ;
#45 = CALENDAR_DATE ( 2023, 12, 2 ) ;
#46 = CIRCLE ( 'NONE', #81, 5.000000000000000000 ) ;
#47 = LINE ( 'NONE', #197, #7 ) ;
#48 = PERSON_AND_ORGANIZATION ( #120, #158 ) ;
#49 = CC_DESIGN_DATE_AND_TIME_ASSIGNMENT ( #208, #109, ( #42 ) ) ;
#50 = AXIS2_PLACEMENT_3D ( 'NONE', #226, #51, #31 ) ;
#51 = DIRECTION ( 'NONE',  ( 0.000000000000000000, 0.000000000000000000, 1.000000000000000000 ) ) ;
#52 = EDGE_LOOP ( 'NONE', ( #173, #247, #222, #151 ) ) ;
#53 = EDGE_CURVE ( 'NONE', #231, #15, #2, .T. ) ;
#54 = ORIENTED_EDGE ( 'NONE', *, *, #11, .F. ) ;
#55 = COORDINATED_UNIVERSAL_TIME_OFFSET ( 1, 0, .AHEAD. ) ;
#56 = CYLINDRICAL_SURFACE ( 'NONE', #218, 5.000000000000000000 ) ;
#57 = CALENDAR_DATE ( 2023, 12, 2 ) ;
#58 = DIRECTION ( 'NONE',  ( 0.000000000000000000, 0.000000000000000000, 1.000000000000000000 ) ) ;
#59 = CARTESIAN_POINT ( 'NONE',  ( 0.000000000000000000, 0.000000000000000000, 400.0000000000000000 ) ) ;
#60 = PLANE ( 'NONE',  #123 ) ;
#61 = VERTEX_POINT ( 'NONE', #239 ) ;
#62 = ADVANCED_FACE ( 'NONE', ( #142 ), #214, .T. ) ;
#63 = CARTESIAN_POINT ( 'NONE',  ( 5.000000000000000000, 6.123233995736765296E-16, 5.000000000000000000 ) ) ;
#64 = CIRCLE ( 'NONE', #116, 8.000000000000000000 ) ;
#65 = DATE_AND_TIME ( #45, #74 ) ;
#66 = APPROVAL ( #17, 'NEURÈENÝ' ) ;
#67 = LOCAL_TIME ( 12, 0, 14.00000000000000000, #24 ) ;
#68 = CC_DESIGN_PERSON_AND_ORGANIZATION_ASSIGNMENT ( #97, #185, ( #35 ) ) ;
#69 =( NAMED_UNIT ( * ) PLANE_ANGLE_UNIT ( ) SI_UNIT ( $, .RADIAN. ) );
#70 = ORIENTED_EDGE ( 'NONE', *, *, #119, .T. ) ;
#71 = DIRECTION ( 'NONE',  ( 1.000000000000000000, 0.000000000000000000, 0.000000000000000000 ) ) ;
#72 = CARTESIAN_POINT ( 'NONE',  ( -8.000000000000000000, 0.000000000000000000, 5.000000000000000000 ) ) ;
#73 = ORIENTED_EDGE ( 'NONE', *, *, #143, .T. ) ;
#74 = LOCAL_TIME ( 12, 0, 14.00000000000000000, #200 ) ;
#75 = ADVANCED_FACE ( 'NONE', ( #171, #243 ), #28, .T. ) ;
#76 = ORIENTED_EDGE ( 'NONE', *, *, #141, .T. ) ;
#77 = DATE_TIME_ROLE ( 'classification_date' ) ;
#78 = EDGE_CURVE ( 'NONE', #61, #190, #195, .T. ) ;
#79 = DIRECTION ( 'NONE',  ( 0.000000000000000000, 0.000000000000000000, 1.000000000000000000 ) ) ;
#80 = CARTESIAN_POINT ( 'NONE',  ( -5.000000000000000000, 0.000000000000000000, 400.0000000000000000 ) ) ;
#81 = AXIS2_PLACEMENT_3D ( 'NONE', #172, #245, #71 ) ;
#82 = CARTESIAN_POINT ( 'NONE',  ( 0.000000000000000000, 0.000000000000000000, 400.0000000000000000 ) ) ;
#83 = DIRECTION ( 'NONE',  ( 0.000000000000000000, 0.000000000000000000, 1.000000000000000000 ) ) ;
#84 = ADVANCED_FACE ( 'NONE', ( #149 ), #13, .T. ) ;
#85 = DIRECTION ( 'NONE',  ( 1.000000000000000000, 0.000000000000000000, -0.000000000000000000 ) ) ;
#86 = AXIS2_PLACEMENT_3D ( 'NONE', #102, #240, #135 ) ;
#87 = APPLICATION_PROTOCOL_DEFINITION ( 'international standard', 'config_control_design', 1994, #170 ) ;
#88 = EDGE_CURVE ( 'NONE', #110, #15, #46, .T. ) ;
#89 = CARTESIAN_POINT ( 'NONE',  ( 0.000000000000000000, 0.000000000000000000, 5.000000000000000000 ) ) ;
#90 = ORIENTED_EDGE ( 'NONE', *, *, #53, .F. ) ;
#91 = PERSON_AND_ORGANIZATION ( #120, #158 ) ;
#92 = AXIS2_PLACEMENT_3D ( 'NONE', #82, #166, #216 ) ;
#93 = ORIENTED_EDGE ( 'NONE', *, *, #88, .T. ) ;
#94 = APPROVAL_PERSON_ORGANIZATION ( #198, #161, #9 ) ;
#95 = EDGE_LOOP ( 'NONE', ( #130, #157 ) ) ;
#96 = AXIS2_PLACEMENT_3D ( 'NONE', #115, #21, #174 ) ;
#97 = PERSON_AND_ORGANIZATION ( #120, #158 ) ;
#98 = FACE_OUTER_BOUND ( 'NONE', #133, .T. ) ;
#99 = APPROVAL_ROLE ( '' ) ;
#100 = CARTESIAN_POINT ( 'NONE',  ( 0.000000000000000000, 0.000000000000000000, 0.000000000000000000 ) ) ;
#101 = DIRECTION ( 'NONE',  ( 1.000000000000000000, 0.000000000000000000, 0.000000000000000000 ) ) ;
#102 = CARTESIAN_POINT ( 'NONE',  ( 0.000000000000000000, 0.000000000000000000, 5.000000000000000000 ) ) ;
#103 = FACE_OUTER_BOUND ( 'NONE', #203, .T. ) ;
#104 = EDGE_CURVE ( 'NONE', #190, #61, #64, .T. ) ;
#105 = CARTESIAN_POINT ( 'NONE',  ( 0.000000000000000000, 0.000000000000000000, 5.000000000000000000 ) ) ;
#106 = DIRECTION ( 'NONE',  ( -1.000000000000000000, 0.000000000000000000, 0.000000000000000000 ) ) ;
#107 = CARTESIAN_POINT ( 'NONE',  ( 0.000000000000000000, 0.000000000000000000, 0.000000000000000000 ) ) ;
#108 = LOCAL_TIME ( 12, 0, 14.00000000000000000, #233 ) ;
#109 = DATE_TIME_ROLE ( 'creation_date' ) ;
#110 = VERTEX_POINT ( 'NONE', #63 ) ;
#111 = DIRECTION ( 'NONE',  ( -0.000000000000000000, -0.000000000000000000, -1.000000000000000000 ) ) ;
#112 = CC_DESIGN_PERSON_AND_ORGANIZATION_ASSIGNMENT ( #160, #154, ( #42 ) ) ;
#113 = UNCERTAINTY_MEASURE_WITH_UNIT (LENGTH_MEASURE( 1.000000000000000082E-05 ), #248, 'distance_accuracy_value', 'NONE');
#114 = ORIENTED_EDGE ( 'NONE', *, *, #246, .F. ) ;
#115 = CARTESIAN_POINT ( 'NONE',  ( 0.000000000000000000, 0.000000000000000000, 400.0000000000000000 ) ) ;
#116 = AXIS2_PLACEMENT_3D ( 'NONE', #40, #147, #167 ) ;
#117 = ORIENTED_EDGE ( 'NONE', *, *, #78, .T. ) ;
#118 = EDGE_LOOP ( 'NONE', ( #206, #227 ) ) ;
#119 = EDGE_CURVE ( 'NONE', #15, #110, #16, .T. ) ;
#120 = PERSON ( 'NEURÈENÝ', 'NEURÈENÝ', 'NEURÈENÝ', ('NEURÈENÝ'), ('NEURÈENÝ'), ('NEURÈENÝ') ) ;
#121 = LOCAL_TIME ( 12, 0, 14.00000000000000000, #55 ) ;
#122 = CALENDAR_DATE ( 2023, 12, 2 ) ;
#123 = AXIS2_PLACEMENT_3D ( 'NONE', #212, #146, #85 ) ;
#124 = DIRECTION ( 'NONE',  ( 1.000000000000000000, 0.000000000000000000, 0.000000000000000000 ) ) ;
#125 = DIRECTION ( 'NONE',  ( -0.000000000000000000, -0.000000000000000000, -1.000000000000000000 ) ) ;
#126 = DIRECTION ( 'NONE',  ( -1.000000000000000000, 0.000000000000000000, 0.000000000000000000 ) ) ;
#127 = AXIS2_PLACEMENT_3D ( 'NONE', #129, #199, #106 ) ;
#128 = CARTESIAN_POINT ( 'NONE',  ( 0.000000000000000000, 0.000000000000000000, 5.000000000000000000 ) ) ;
#129 = CARTESIAN_POINT ( 'NONE',  ( 0.000000000000000000, 0.000000000000000000, 5.000000000000000000 ) ) ;
#130 = ORIENTED_EDGE ( 'NONE', *, *, #119, .F. ) ;
#131 = EDGE_CURVE ( 'NONE', #152, #189, #235, .T. ) ;
#132 = VECTOR ( 'NONE', #188, 1000.000000000000000 ) ;
#133 = EDGE_LOOP ( 'NONE', ( #54, #186, #34, #70 ) ) ;
#134 = ORIENTED_EDGE ( 'NONE', *, *, #131, .T. ) ;
#135 = DIRECTION ( 'NONE',  ( 1.000000000000000000, 0.000000000000000000, 0.000000000000000000 ) ) ;
#136 = CARTESIAN_POINT ( 'NONE',  ( 8.000000000000000000, 9.797174393178825657E-16, 5.000000000000000000 ) ) ;
#137 = ORIENTED_EDGE ( 'NONE', *, *, #191, .F. ) ;
#138 = CARTESIAN_POINT ( 'NONE',  ( 0.000000000000000000, 0.000000000000000000, 400.0000000000000000 ) ) ;
#139 = MANIFOLD_SOLID_BREP ( 'Pøidat vysunutím3', #32 ) ;
#140 = DIRECTION ( 'NONE',  ( 1.000000000000000000, 0.000000000000000000, 0.000000000000000000 ) ) ;
#141 = EDGE_CURVE ( 'NONE', #189, #61, #29, .T. ) ;
#142 = FACE_OUTER_BOUND ( 'NONE', #221, .T. ) ;
#143 = EDGE_CURVE ( 'NONE', #251, #231, #244, .T. ) ;
#144 = AXIS2_PLACEMENT_3D ( 'NONE', #105, #12, #219 ) ;
#145 = SHAPE_DEFINITION_REPRESENTATION ( #27, #238 ) ;
#146 = DIRECTION ( 'NONE',  ( 0.000000000000000000, 0.000000000000000000, 1.000000000000000000 ) ) ;
#147 = DIRECTION ( 'NONE',  ( 0.000000000000000000, 0.000000000000000000, 1.000000000000000000 ) ) ;
#148 =( GEOMETRIC_REPRESENTATION_CONTEXT ( 3 ) GLOBAL_UNCERTAINTY_ASSIGNED_CONTEXT ( ( #113 ) ) GLOBAL_UNIT_ASSIGNED_CONTEXT ( ( #248, #69, #159 ) ) REPRESENTATION_CONTEXT ( 'NONE', 'WORKASPACE' ) );
#149 = FACE_OUTER_BOUND ( 'NONE', #52, .T. ) ;
#150 = DIRECTION ( 'NONE',  ( -0.000000000000000000, -0.000000000000000000, -1.000000000000000000 ) ) ;
#151 = ORIENTED_EDGE ( 'NONE', *, *, #141, .F. ) ;
#152 = VERTEX_POINT ( 'NONE', #136 ) ;
#153 = CC_DESIGN_APPROVAL ( #66, ( #35 ) ) ;
#154 = PERSON_AND_ORGANIZATION_ROLE ( 'creator' ) ;
#155 = ADVANCED_FACE ( 'NONE', ( #22 ), #236, .T. ) ;
#156 = DIRECTION ( 'NONE',  ( 0.000000000000000000, 0.000000000000000000, 1.000000000000000000 ) ) ;
#157 = ORIENTED_EDGE ( 'NONE', *, *, #88, .F. ) ;
#158 = ORGANIZATION ( 'NEURÈENÝ', 'NEURÈENÝ', '' ) ;
#159 =( NAMED_UNIT ( * ) SI_UNIT ( $, .STERADIAN. ) SOLID_ANGLE_UNIT ( ) );
#160 = PERSON_AND_ORGANIZATION ( #120, #158 ) ;
#161 = APPROVAL ( #202, 'NEURÈENÝ' ) ;
#162 = DATE_AND_TIME ( #175, #176 ) ;
#163 = DIRECTION ( 'NONE',  ( -0.000000000000000000, -0.000000000000000000, -1.000000000000000000 ) ) ;
#164 = VECTOR ( 'NONE', #111, 1000.000000000000000 ) ;
#165 = CC_DESIGN_PERSON_AND_ORGANIZATION_ASSIGNMENT ( #48, #10, ( #5 ) ) ;
#166 = DIRECTION ( 'NONE',  ( 0.000000000000000000, 0.000000000000000000, 1.000000000000000000 ) ) ;
#167 = DIRECTION ( 'NONE',  ( 1.000000000000000000, 0.000000000000000000, 0.000000000000000000 ) ) ;
#168 = ADVANCED_FACE ( 'NONE', ( #255 ), #60, .F. ) ;
#169 = CC_DESIGN_APPROVAL ( #183, ( #41 ) ) ;
#170 = APPLICATION_CONTEXT ( 'configuration controlled 3d designs of mechanical parts and assemblies' ) ;
#171 = FACE_BOUND ( 'NONE', #95, .T. ) ;
#172 = CARTESIAN_POINT ( 'NONE',  ( 0.000000000000000000, 0.000000000000000000, 5.000000000000000000 ) ) ;
#173 = ORIENTED_EDGE ( 'NONE', *, *, #131, .F. ) ;
#174 = DIRECTION ( 'NONE',  ( 1.000000000000000000, 0.000000000000000000, -0.000000000000000000 ) ) ;
#175 = CALENDAR_DATE ( 2023, 12, 2 ) ;
#176 = LOCAL_TIME ( 12, 0, 14.00000000000000000, #1 ) ;
#177 = PERSON_AND_ORGANIZATION_ROLE ( 'classification_officer' ) ;
#178 = VECTOR ( 'NONE', #163, 1000.000000000000000 ) ;
#179 = DIRECTION ( 'NONE',  ( -1.000000000000000000, 0.000000000000000000, 0.000000000000000000 ) ) ;
#180 = DATE_AND_TIME ( #122, #67 ) ;
#181 = CARTESIAN_POINT ( 'NONE',  ( -5.000000000000000000, 0.000000000000000000, 5.000000000000000000 ) ) ;
#182 = AXIS2_PLACEMENT_3D ( 'NONE', #100, #58, #140 ) ;
#183 = APPROVAL ( #213, 'NEURÈENÝ' ) ;
#184 = CIRCLE ( 'NONE', #86, 8.000000000000000000 ) ;
#185 = PERSON_AND_ORGANIZATION_ROLE ( 'design_supplier' ) ;
#186 = ORIENTED_EDGE ( 'NONE', *, *, #196, .F. ) ;
#187 = AXIS2_PLACEMENT_3D ( 'NONE', #89, #201, #30 ) ;
#188 = DIRECTION ( 'NONE',  ( -0.000000000000000000, -0.000000000000000000, -1.000000000000000000 ) ) ;
#189 = VERTEX_POINT ( 'NONE', #217 ) ;
#190 = VERTEX_POINT ( 'NONE', #44 ) ;
#191 = EDGE_CURVE ( 'NONE', #152, #190, #47, .T. ) ;
#192 = PERSON_AND_ORGANIZATION ( #120, #158 ) ;
#193 = MECHANICAL_CONTEXT ( 'NONE', #36, 'mechanical' ) ;
#194 = ADVANCED_FACE ( 'NONE', ( #103 ), #8, .T. ) ;
#195 = CIRCLE ( 'NONE', #242, 8.000000000000000000 ) ;
#196 = EDGE_CURVE ( 'NONE', #231, #251, #25, .T. ) ;
#197 = CARTESIAN_POINT ( 'NONE',  ( 8.000000000000000000, 9.797174393178825657E-16, 5.000000000000000000 ) ) ;
#198 = PERSON_AND_ORGANIZATION ( #120, #158 ) ;
#199 = DIRECTION ( 'NONE',  ( -0.000000000000000000, -0.000000000000000000, -1.000000000000000000 ) ) ;
#200 = COORDINATED_UNIVERSAL_TIME_OFFSET ( 1, 0, .AHEAD. ) ;
#201 = DIRECTION ( 'NONE',  ( -0.000000000000000000, -0.000000000000000000, -1.000000000000000000 ) ) ;
#202 = APPROVAL_STATUS ( 'not_yet_approved' ) ;
#203 = EDGE_LOOP ( 'NONE', ( #137, #114, #76, #117 ) ) ;
#204 = PERSON_AND_ORGANIZATION ( #120, #158 ) ;
#205 = CARTESIAN_POINT ( 'NONE',  ( 5.000000000000000000, 6.123233995736765296E-16, 400.0000000000000000 ) ) ;
#206 = ORIENTED_EDGE ( 'NONE', *, *, #78, .F. ) ;
#207 = ORIENTED_EDGE ( 'NONE', *, *, #11, .T. ) ;
#208 = DATE_AND_TIME ( #57, #108 ) ;
#209 = PRODUCT_RELATED_PRODUCT_CATEGORY ( 'detail', '', ( #5 ) ) ;
#210 = APPLICATION_PROTOCOL_DEFINITION ( 'international standard', 'config_control_design', 1994, #36 ) ;
#211 = DIRECTION ( 'NONE',  ( -0.000000000000000000, -0.000000000000000000, -1.000000000000000000 ) ) ;
#212 = CARTESIAN_POINT ( 'NONE',  ( 0.000000000000000000, 0.000000000000000000, 0.000000000000000000 ) ) ;
#213 = APPROVAL_STATUS ( 'not_yet_approved' ) ;
#214 = PLANE ( 'NONE',  #96 ) ;
#215 = APPROVAL_DATE_TIME ( #37, #66 ) ;
#216 = DIRECTION ( 'NONE',  ( 1.000000000000000000, 0.000000000000000000, 0.000000000000000000 ) ) ;
#217 = CARTESIAN_POINT ( 'NONE',  ( -8.000000000000000000, 0.000000000000000000, 5.000000000000000000 ) ) ;
#218 = AXIS2_PLACEMENT_3D ( 'NONE', #138, #150, #126 ) ;
#219 = DIRECTION ( 'NONE',  ( 1.000000000000000000, 0.000000000000000000, -0.000000000000000000 ) ) ;
#220 = LINE ( 'NONE', #229, #164 ) ;
#221 = EDGE_LOOP ( 'NONE', ( #38, #73 ) ) ;
#222 = ORIENTED_EDGE ( 'NONE', *, *, #104, .T. ) ;
#223 = CC_DESIGN_APPROVAL ( #161, ( #42 ) ) ;
#224 = PERSON_AND_ORGANIZATION_ROLE ( 'creator' ) ;
#225 = CALENDAR_DATE ( 2023, 12, 2 ) ;
#226 = CARTESIAN_POINT ( 'NONE',  ( 0.000000000000000000, 0.000000000000000000, 400.0000000000000000 ) ) ;
#227 = ORIENTED_EDGE ( 'NONE', *, *, #104, .F. ) ;
#228 = PERSON_AND_ORGANIZATION ( #120, #158 ) ;
#229 = CARTESIAN_POINT ( 'NONE',  ( 5.000000000000000000, 6.123233995736765296E-16, 400.0000000000000000 ) ) ;
#230 = DIRECTION ( 'NONE',  ( 1.000000000000000000, 0.000000000000000000, 0.000000000000000000 ) ) ;
#231 = VERTEX_POINT ( 'NONE', #43 ) ;
#232 = CC_DESIGN_PERSON_AND_ORGANIZATION_ASSIGNMENT ( #228, #177, ( #41 ) ) ;
#233 = COORDINATED_UNIVERSAL_TIME_OFFSET ( 1, 0, .AHEAD. ) ;
#234 = ORIENTED_EDGE ( 'NONE', *, *, #246, .T. ) ;
#235 = CIRCLE ( 'NONE', #254, 8.000000000000000000 ) ;
#236 = CYLINDRICAL_SURFACE ( 'NONE', #237, 5.000000000000000000 ) ;
#237 = AXIS2_PLACEMENT_3D ( 'NONE', #59, #211, #179 ) ;
#238 = ADVANCED_BREP_SHAPE_REPRESENTATION ( '2601', ( #139, #182 ), #148 ) ;
#239 = CARTESIAN_POINT ( 'NONE',  ( -8.000000000000000000, 0.000000000000000000, 0.000000000000000000 ) ) ;
#240 = DIRECTION ( 'NONE',  ( 0.000000000000000000, 0.000000000000000000, 1.000000000000000000 ) ) ;
#241 = CARTESIAN_POINT ( 'NONE',  ( 0.000000000000000000, 0.000000000000000000, 5.000000000000000000 ) ) ;
#242 = AXIS2_PLACEMENT_3D ( 'NONE', #107, #156, #230 ) ;
#243 = FACE_OUTER_BOUND ( 'NONE', #19, .T. ) ;
#244 = CIRCLE ( 'NONE', #50, 5.000000000000000000 ) ;
#245 = DIRECTION ( 'NONE',  ( 0.000000000000000000, 0.000000000000000000, 1.000000000000000000 ) ) ;
#246 = EDGE_CURVE ( 'NONE', #189, #152, #184, .T. ) ;
#247 = ORIENTED_EDGE ( 'NONE', *, *, #191, .T. ) ;
#248 =( LENGTH_UNIT ( ) NAMED_UNIT ( * ) SI_UNIT ( .MILLI., .METRE. ) );
#249 = APPROVAL_ROLE ( '' ) ;
#250 = EDGE_LOOP ( 'NONE', ( #23, #207, #93, #90 ) ) ;
#251 = VERTEX_POINT ( 'NONE', #205 ) ;
#252 = APPROVAL_PERSON_ORGANIZATION ( #91, #66, #249 ) ;
#253 = DESIGN_CONTEXT ( 'detailed design', #170, 'design' ) ;
#254 = AXIS2_PLACEMENT_3D ( 'NONE', #241, #79, #101 ) ;
#255 = FACE_OUTER_BOUND ( 'NONE', #118, .T. ) ;
ENDSEC;
END-ISO-10303-21;
