ISO-10303-21;
HEADER;
FILE_DESCRIPTION (( 'STEP AP203' ),
    '1' );
FILE_NAME ('0521.STEP',
    '2022-07-07T12:22:11',
    ( '' ),
    ( '' ),
    'SwSTEP 2.0',
    'SolidWorks 2019',
    '' );
FILE_SCHEMA (( 'CONFIG_CONTROL_DESIGN' ));
ENDSEC;

DATA;
#1 = APPLICATION_PROTOCOL_DEFINITION ( 'international standard', 'config_control_design', 1994, #187 ) ;
#2 = VERTEX_POINT ( 'NONE', #74 ) ;
#3 = DIRECTION ( 'NONE',  ( 1.000000000000000000, 0.000000000000000000, 0.000000000000000000 ) ) ;
#4 = VERTEX_POINT ( 'NONE', #165 ) ;
#5 = COORDINATED_UNIVERSAL_TIME_OFFSET ( 1, 0, .AHEAD. ) ;
#6 = AXIS2_PLACEMENT_3D ( 'NONE', #122, #40, #150 ) ;
#7 = AXIS2_PLACEMENT_3D ( 'NONE', #177, #66, #252 ) ;
#8 = ORIENTED_EDGE ( 'NONE', *, *, #127, .T. ) ;
#9 = DATE_TIME_ROLE ( 'classification_date' ) ;
#10 = CARTESIAN_POINT ( 'NONE',  ( 7.200000000000000178, 0.000000000000000000, 7.000000000000006217 ) ) ;
#11 = AXIS2_PLACEMENT_3D ( 'NONE', #171, #78, #38 ) ;
#12 = CIRCLE ( 'NONE', #193, 0.1999999999999996503 ) ;
#13 = CARTESIAN_POINT ( 'NONE',  ( 0.000000000000000000, 0.000000000000000000, 7.200000000000011724 ) ) ;
#14 = MANIFOLD_SOLID_BREP ( 'Zaoblit1', #126 ) ;
#15 = SHAPE_DEFINITION_REPRESENTATION ( #68, #201 ) ;
#16 = DIRECTION ( 'NONE',  ( -1.000000000000000000, 1.224646799147358384E-16, 0.000000000000000000 ) ) ;
#17 = LOCAL_TIME ( 14, 22, 11.00000000000000000, #5 ) ;
#18 = EDGE_CURVE ( 'NONE', #220, #261, #185, .T. ) ;
#19 = DIRECTION ( 'NONE',  ( 0.000000000000000000, 0.000000000000000000, 1.000000000000000000 ) ) ;
#20 = DIRECTION ( 'NONE',  ( 1.000000000000000000, 0.000000000000000000, 0.000000000000000000 ) ) ;
#21 = TOROIDAL_SURFACE ( 'NONE', #190, 7.200000000000000178, 0.2000000000000000111 ) ;
#22 = AXIS2_PLACEMENT_3D ( 'NONE', #46, #135, #87 ) ;
#23 = LINE ( 'NONE', #299, #131 ) ;
#24 = PRODUCT ( '0521', '0521', '', ( #222 ) ) ;
#25 = CARTESIAN_POINT ( 'NONE',  ( 0.000000000000000000, 0.000000000000000000, 257.0000000000000000 ) ) ;
#26 = EDGE_LOOP ( 'NONE', ( #113, #53 ) ) ;
#27 = DIRECTION ( 'NONE',  ( -1.000000000000000000, 0.000000000000000000, 0.000000000000000000 ) ) ;
#28 = ORIENTED_EDGE ( 'NONE', *, *, #18, .T. ) ;
#29 = PERSON_AND_ORGANIZATION_ROLE ( 'classification_officer' ) ;
#30 = CIRCLE ( 'NONE', #7, 11.00000000000000000 ) ;
#31 = ORIENTED_EDGE ( 'NONE', *, *, #271, .F. ) ;
#32 = COORDINATED_UNIVERSAL_TIME_OFFSET ( 1, 0, .AHEAD. ) ;
#33 = VERTEX_POINT ( 'NONE', #37 ) ;
#34 = APPLICATION_PROTOCOL_DEFINITION ( 'international standard', 'config_control_design', 1994, #172 ) ;
#35 = DESIGN_CONTEXT ( 'detailed design', #187, 'design' ) ;
#36 = TOROIDAL_SURFACE ( 'NONE', #231, 7.200000000000000178, 0.2000000000000000111 ) ;
#37 = CARTESIAN_POINT ( 'NONE',  ( 7.000000000000000000, 8.572527594031473190E-16, 7.200000000000011724 ) ) ;
#38 = DIRECTION ( 'NONE',  ( 1.000000000000000000, 0.000000000000000000, -0.000000000000000000 ) ) ;
#39 = DIRECTION ( 'NONE',  ( 0.000000000000000000, 0.000000000000000000, 1.000000000000000000 ) ) ;
#40 = DIRECTION ( 'NONE',  ( -0.000000000000000000, -0.000000000000000000, -1.000000000000000000 ) ) ;
#41 = ADVANCED_FACE ( 'NONE', ( #223 ), #21, .F. ) ;
#42 = LOCAL_TIME ( 14, 22, 11.00000000000000000, #75 ) ;
#43 = DIRECTION ( 'NONE',  ( -0.000000000000000000, -0.000000000000000000, -1.000000000000000000 ) ) ;
#44 = EDGE_CURVE ( 'NONE', #56, #69, #129, .T. ) ;
#45 = CARTESIAN_POINT ( 'NONE',  ( 0.000000000000000000, 0.000000000000000000, 7.200000000000011724 ) ) ;
#46 = CARTESIAN_POINT ( 'NONE',  ( 0.000000000000000000, 0.000000000000000000, 7.000000000000000000 ) ) ;
#47 = CIRCLE ( 'NONE', #276, 11.00000000000000000 ) ;
#48 = DIRECTION ( 'NONE',  ( 1.000000000000000000, 0.000000000000000000, 0.000000000000000000 ) ) ;
#49 = EDGE_CURVE ( 'NONE', #69, #4, #97, .T. ) ;
#50 = CARTESIAN_POINT ( 'NONE',  ( 7.200000000000000178, 0.000000000000000000, 7.200000000000011724 ) ) ;
#51 = ORIENTED_EDGE ( 'NONE', *, *, #275, .F. ) ;
#52 = PERSON_AND_ORGANIZATION_ROLE ( 'creator' ) ;
#53 = ORIENTED_EDGE ( 'NONE', *, *, #207, .T. ) ;
#54 = CALENDAR_DATE ( 2022, 7, 7 ) ;
#55 = AXIS2_PLACEMENT_3D ( 'NONE', #45, #301, #258 ) ;
#56 = VERTEX_POINT ( 'NONE', #198 ) ;
#57 = APPROVAL ( #164, 'NEURÈENÝ' ) ;
#58 = ORIENTED_EDGE ( 'NONE', *, *, #230, .F. ) ;
#59 = ORIENTED_EDGE ( 'NONE', *, *, #271, .T. ) ;
#60 = CIRCLE ( 'NONE', #170, 11.00000000000000000 ) ;
#61 = DIRECTION ( 'NONE',  ( 1.000000000000000000, 0.000000000000000000, 0.000000000000000000 ) ) ;
#62 = DIRECTION ( 'NONE',  ( 1.000000000000000000, 0.000000000000000000, 0.000000000000000000 ) ) ;
#63 = AXIS2_PLACEMENT_3D ( 'NONE', #265, #285, #3 ) ;
#64 = CC_DESIGN_APPROVAL ( #269, ( #206 ) ) ;
#65 = FACE_OUTER_BOUND ( 'NONE', #111, .T. ) ;
#66 = DIRECTION ( 'NONE',  ( 0.000000000000000000, 0.000000000000000000, 1.000000000000000000 ) ) ;
#67 = CARTESIAN_POINT ( 'NONE',  ( 0.000000000000000000, 0.000000000000000000, 0.000000000000000000 ) ) ;
#68 = PRODUCT_DEFINITION_SHAPE ( 'NONE', 'NONE',  #103 ) ;
#69 = VERTEX_POINT ( 'NONE', #293 ) ;
#70 = PERSON_AND_ORGANIZATION ( #130, #108 ) ;
#71 = EDGE_LOOP ( 'NONE', ( #51, #159, #145, #282 ) ) ;
#72 = PERSON_AND_ORGANIZATION_ROLE ( 'creator' ) ;
#73 = AXIS2_PLACEMENT_3D ( 'NONE', #25, #110, #254 ) ;
#74 = CARTESIAN_POINT ( 'NONE',  ( 11.00000000000000000, 1.347111479062088405E-15, 7.000000000000000000 ) ) ;
#75 = COORDINATED_UNIVERSAL_TIME_OFFSET ( 1, 0, .AHEAD. ) ;
#76 = DIRECTION ( 'NONE',  ( -1.000000000000000000, 0.000000000000000000, 0.000000000000000000 ) ) ;
#77 = CIRCLE ( 'NONE', #121, 7.200000000000000178 ) ;
#78 = DIRECTION ( 'NONE',  ( 0.000000000000000000, 0.000000000000000000, 1.000000000000000000 ) ) ;
#79 = DIRECTION ( 'NONE',  ( 0.000000000000000000, 0.000000000000000000, 1.000000000000000000 ) ) ;
#80 = DIRECTION ( 'NONE',  ( 0.000000000000000000, 0.000000000000000000, 1.000000000000000000 ) ) ;
#81 = CIRCLE ( 'NONE', #55, 7.000000000000000000 ) ;
#82 = CC_DESIGN_PERSON_AND_ORGANIZATION_ASSIGNMENT ( #189, #72, ( #298 ) ) ;
#83 = EDGE_CURVE ( 'NONE', #220, #259, #203, .T. ) ;
#84 =( LENGTH_UNIT ( ) NAMED_UNIT ( * ) SI_UNIT ( .MILLI., .METRE. ) );
#85 = CARTESIAN_POINT ( 'NONE',  ( -7.000000000000000000, 0.000000000000000000, 257.0000000000000000 ) ) ;
#86 = CARTESIAN_POINT ( 'NONE',  ( 0.000000000000000000, 0.000000000000000000, 7.000000000000000000 ) ) ;
#87 = DIRECTION ( 'NONE',  ( 1.000000000000000000, 0.000000000000000000, -0.000000000000000000 ) ) ;
#88 = ORIENTED_EDGE ( 'NONE', *, *, #44, .T. ) ;
#89 = LOCAL_TIME ( 14, 22, 11.00000000000000000, #215 ) ;
#90 = CARTESIAN_POINT ( 'NONE',  ( 0.000000000000000000, 0.000000000000000000, 257.0000000000000000 ) ) ;
#91 = APPROVAL_STATUS ( 'not_yet_approved' ) ;
#92 = ADVANCED_FACE ( 'NONE', ( #229 ), #202, .T. ) ;
#93 = EDGE_LOOP ( 'NONE', ( #161, #217 ) ) ;
#94 = APPROVAL_DATE_TIME ( #162, #136 ) ;
#95 = PRODUCT_RELATED_PRODUCT_CATEGORY ( 'detail', '', ( #24 ) ) ;
#96 = ORIENTED_EDGE ( 'NONE', *, *, #197, .T. ) ;
#97 = CIRCLE ( 'NONE', #119, 11.00000000000000000 ) ;
#98 = APPROVAL_ROLE ( '' ) ;
#99 = ORIENTED_EDGE ( 'NONE', *, *, #44, .F. ) ;
#100 = CYLINDRICAL_SURFACE ( 'NONE', #6, 7.000000000000000000 ) ;
#101 = CARTESIAN_POINT ( 'NONE',  ( -7.200000000000000178, 8.817456953860942303E-16, 7.200000000000011724 ) ) ;
#102 = DIRECTION ( 'NONE',  ( 0.000000000000000000, 0.000000000000000000, 1.000000000000000000 ) ) ;
#103 = PRODUCT_DEFINITION ( 'NEZNÁMÝ', '', #298, #35 ) ;
#104 = DIRECTION ( 'NONE',  ( 1.000000000000000000, 0.000000000000000000, 0.000000000000000000 ) ) ;
#105 = CC_DESIGN_PERSON_AND_ORGANIZATION_ASSIGNMENT ( #120, #29, ( #206 ) ) ;
#106 = CARTESIAN_POINT ( 'NONE',  ( 0.000000000000000000, 0.000000000000000000, 7.200000000000011724 ) ) ;
#107 =( NAMED_UNIT ( * ) SI_UNIT ( $, .STERADIAN. ) SOLID_ANGLE_UNIT ( ) );
#108 = ORGANIZATION ( 'NEURÈENÝ', 'NEURÈENÝ', '' ) ;
#109 = DIRECTION ( 'NONE',  ( 1.000000000000000000, 0.000000000000000000, 0.000000000000000000 ) ) ;
#110 = DIRECTION ( 'NONE',  ( 0.000000000000000000, 0.000000000000000000, 1.000000000000000000 ) ) ;
#111 = EDGE_LOOP ( 'NONE', ( #142, #58 ) ) ;
#112 = PLANE ( 'NONE',  #274 ) ;
#113 = ORIENTED_EDGE ( 'NONE', *, *, #304, .T. ) ;
#114 = DATE_AND_TIME ( #283, #17 ) ;
#115 = ORIENTED_EDGE ( 'NONE', *, *, #49, .T. ) ;
#116 = APPROVAL_DATE_TIME ( #243, #57 ) ;
#117 = DATE_AND_TIME ( #263, #89 ) ;
#118 = EDGE_LOOP ( 'NONE', ( #138, #8, #96, #267 ) ) ;
#119 = AXIS2_PLACEMENT_3D ( 'NONE', #169, #39, #62 ) ;
#120 = PERSON_AND_ORGANIZATION ( #130, #108 ) ;
#121 = AXIS2_PLACEMENT_3D ( 'NONE', #86, #236, #20 ) ;
#122 = CARTESIAN_POINT ( 'NONE',  ( 0.000000000000000000, 0.000000000000000000, 257.0000000000000000 ) ) ;
#123 = CYLINDRICAL_SURFACE ( 'NONE', #306, 11.00000000000000000 ) ;
#124 = ADVANCED_FACE ( 'NONE', ( #247 ), #100, .T. ) ;
#125 = CARTESIAN_POINT ( 'NONE',  ( 7.000000000000000000, 8.572527594031473190E-16, 257.0000000000000000 ) ) ;
#126 = CLOSED_SHELL ( 'NONE', ( #183, #295, #149, #216, #242, #266, #124, #92, #41 ) ) ;
#127 = EDGE_CURVE ( 'NONE', #259, #33, #196, .T. ) ;
#128 = CIRCLE ( 'NONE', #73, 7.000000000000000000 ) ;
#129 = LINE ( 'NONE', #200, #234 ) ;
#130 = PERSON ( 'NEURÈENÝ', 'NEURÈENÝ', 'NEURÈENÝ', ('NEURÈENÝ'), ('NEURÈENÝ'), ('NEURÈENÝ') ) ;
#131 = VECTOR ( 'NONE', #255, 1000.000000000000000 ) ;
#132 = DIRECTION ( 'NONE',  ( -1.000000000000000000, 0.000000000000000000, 0.000000000000000000 ) ) ;
#133 = AXIS2_PLACEMENT_3D ( 'NONE', #147, #79, #173 ) ;
#134 = AXIS2_PLACEMENT_3D ( 'NONE', #281, #43, #109 ) ;
#135 = DIRECTION ( 'NONE',  ( 0.000000000000000000, 0.000000000000000000, 1.000000000000000000 ) ) ;
#136 = APPROVAL ( #260, 'NEURÈENÝ' ) ;
#137 = FACE_OUTER_BOUND ( 'NONE', #212, .T. ) ;
#138 = ORIENTED_EDGE ( 'NONE', *, *, #225, .F. ) ;
#139 = PERSON_AND_ORGANIZATION_ROLE ( 'design_owner' ) ;
#140 = VECTOR ( 'NONE', #148, 1000.000000000000000 ) ;
#141 = APPROVAL_PERSON_ORGANIZATION ( #166, #136, #160 ) ;
#142 = ORIENTED_EDGE ( 'NONE', *, *, #49, .F. ) ;
#143 = PERSON_AND_ORGANIZATION ( #130, #108 ) ;
#144 = ORIENTED_EDGE ( 'NONE', *, *, #168, .T. ) ;
#145 = ORIENTED_EDGE ( 'NONE', *, *, #304, .F. ) ;
#146 = CC_DESIGN_APPROVAL ( #57, ( #103 ) ) ;
#147 = CARTESIAN_POINT ( 'NONE',  ( 0.000000000000000000, 0.000000000000000000, 257.0000000000000000 ) ) ;
#148 = DIRECTION ( 'NONE',  ( -0.000000000000000000, -0.000000000000000000, -1.000000000000000000 ) ) ;
#149 = ADVANCED_FACE ( 'NONE', ( #250 ), #123, .T. ) ;
#150 = DIRECTION ( 'NONE',  ( -1.000000000000000000, 0.000000000000000000, 0.000000000000000000 ) ) ;
#151 = AXIS2_PLACEMENT_3D ( 'NONE', #179, #278, #27 ) ;
#152 = DIRECTION ( 'NONE',  ( 1.000000000000000000, 0.000000000000000000, 0.000000000000000000 ) ) ;
#153 = CC_DESIGN_PERSON_AND_ORGANIZATION_ASSIGNMENT ( #245, #139, ( #24 ) ) ;
#154 = FACE_OUTER_BOUND ( 'NONE', #239, .T. ) ;
#155 = DIRECTION ( 'NONE',  ( 0.000000000000000000, 0.000000000000000000, 1.000000000000000000 ) ) ;
#156 = VECTOR ( 'NONE', #248, 1000.000000000000000 ) ;
#157 = APPROVAL_PERSON_ORGANIZATION ( #213, #269, #98 ) ;
#158 = DIRECTION ( 'NONE',  ( 1.000000000000000000, 0.000000000000000000, -0.000000000000000000 ) ) ;
#159 = ORIENTED_EDGE ( 'NONE', *, *, #175, .T. ) ;
#160 = APPROVAL_ROLE ( '' ) ;
#161 = ORIENTED_EDGE ( 'NONE', *, *, #83, .T. ) ;
#162 = DATE_AND_TIME ( #287, #42 ) ;
#163 = VERTEX_POINT ( 'NONE', #272 ) ;
#164 = APPROVAL_STATUS ( 'not_yet_approved' ) ;
#165 = CARTESIAN_POINT ( 'NONE',  ( 11.00000000000000000, 1.347111479062088405E-15, 0.000000000000000000 ) ) ;
#166 = PERSON_AND_ORGANIZATION ( #130, #108 ) ;
#167 = VERTEX_POINT ( 'NONE', #10 ) ;
#168 = EDGE_CURVE ( 'NONE', #2, #56, #60, .T. ) ;
#169 = CARTESIAN_POINT ( 'NONE',  ( 0.000000000000000000, 0.000000000000000000, 0.000000000000000000 ) ) ;
#170 = AXIS2_PLACEMENT_3D ( 'NONE', #294, #80, #104 ) ;
#171 = CARTESIAN_POINT ( 'NONE',  ( 0.000000000000000000, 0.000000000000000000, 257.0000000000000000 ) ) ;
#172 = APPLICATION_CONTEXT ( 'configuration controlled 3d designs of mechanical parts and assemblies' ) ;
#173 = DIRECTION ( 'NONE',  ( 1.000000000000000000, 0.000000000000000000, 0.000000000000000000 ) ) ;
#174 = FACE_OUTER_BOUND ( 'NONE', #71, .T. ) ;
#175 = EDGE_CURVE ( 'NONE', #261, #163, #256, .T. ) ;
#176 = LOCAL_TIME ( 14, 22, 11.00000000000000000, #32 ) ;
#177 = CARTESIAN_POINT ( 'NONE',  ( 0.000000000000000000, 0.000000000000000000, 0.000000000000000000 ) ) ;
#178 = CYLINDRICAL_SURFACE ( 'NONE', #151, 11.00000000000000000 ) ;
#179 = CARTESIAN_POINT ( 'NONE',  ( 0.000000000000000000, 0.000000000000000000, 7.000000000000000000 ) ) ;
#180 = CC_DESIGN_SECURITY_CLASSIFICATION ( #206, ( #298 ) ) ;
#181 = ORIENTED_EDGE ( 'NONE', *, *, #228, .F. ) ;
#182 = DIRECTION ( 'NONE',  ( -0.000000000000000000, -0.000000000000000000, -1.000000000000000000 ) ) ;
#183 = ADVANCED_FACE ( 'NONE', ( #174 ), #36, .F. ) ;
#184 = UNCERTAINTY_MEASURE_WITH_UNIT (LENGTH_MEASURE( 1.000000000000000082E-05 ), #84, 'distance_accuracy_value', 'NONE');
#185 = LINE ( 'NONE', #303, #140 ) ;
#186 = PERSON_AND_ORGANIZATION_ROLE ( 'design_supplier' ) ;
#187 = APPLICATION_CONTEXT ( 'configuration controlled 3d designs of mechanical parts and assemblies' ) ;
#188 = EDGE_LOOP ( 'NONE', ( #191, #264, #28, #262 ) ) ;
#189 = PERSON_AND_ORGANIZATION ( #130, #108 ) ;
#190 = AXIS2_PLACEMENT_3D ( 'NONE', #292, #268, #61 ) ;
#191 = ORIENTED_EDGE ( 'NONE', *, *, #127, .F. ) ;
#192 = CC_DESIGN_DATE_AND_TIME_ASSIGNMENT ( #117, #218, ( #103 ) ) ;
#193 = AXIS2_PLACEMENT_3D ( 'NONE', #50, #237, #297 ) ;
#194 = APPROVAL_ROLE ( '' ) ;
#195 = ORIENTED_EDGE ( 'NONE', *, *, #207, .F. ) ;
#196 = LINE ( 'NONE', #125, #156 ) ;
#197 = EDGE_CURVE ( 'NONE', #33, #261, #227, .T. ) ;
#198 = CARTESIAN_POINT ( 'NONE',  ( -11.00000000000000000, 0.000000000000000000, 7.000000000000000000 ) ) ;
#199 = APPROVAL_PERSON_ORGANIZATION ( #143, #57, #194 ) ;
#200 = CARTESIAN_POINT ( 'NONE',  ( -11.00000000000000000, 0.000000000000000000, 7.000000000000000000 ) ) ;
#201 = ADVANCED_BREP_SHAPE_REPRESENTATION ( '0521', ( #14, #63 ), #251 ) ;
#202 = PLANE ( 'NONE',  #11 ) ;
#203 = CIRCLE ( 'NONE', #133, 7.000000000000000000 ) ;
#204 = DATE_AND_TIME ( #296, #257 ) ;
#205 = PLANE ( 'NONE',  #22 ) ;
#206 = SECURITY_CLASSIFICATION ( '', '', #246 ) ;
#207 = EDGE_CURVE ( 'NONE', #163, #167, #77, .T. ) ;
#208 = CARTESIAN_POINT ( 'NONE',  ( 0.000000000000000000, 0.000000000000000000, 7.000000000000000000 ) ) ;
#209 = ORIENTED_EDGE ( 'NONE', *, *, #291, .T. ) ;
#210 = FACE_OUTER_BOUND ( 'NONE', #118, .T. ) ;
#211 = AXIS2_PLACEMENT_3D ( 'NONE', #106, #155, #48 ) ;
#212 = EDGE_LOOP ( 'NONE', ( #214, #144 ) ) ;
#213 = PERSON_AND_ORGANIZATION ( #130, #108 ) ;
#214 = ORIENTED_EDGE ( 'NONE', *, *, #228, .T. ) ;
#215 = COORDINATED_UNIVERSAL_TIME_OFFSET ( 1, 0, .AHEAD. ) ;
#216 = ADVANCED_FACE ( 'NONE', ( #154 ), #178, .T. ) ;
#217 = ORIENTED_EDGE ( 'NONE', *, *, #225, .T. ) ;
#218 = DATE_TIME_ROLE ( 'creation_date' ) ;
#219 = AXIS2_PLACEMENT_3D ( 'NONE', #101, #270, #16 ) ;
#220 = VERTEX_POINT ( 'NONE', #85 ) ;
#221 = CC_DESIGN_APPROVAL ( #136, ( #298 ) ) ;
#222 = MECHANICAL_CONTEXT ( 'NONE', #172, 'mechanical' ) ;
#223 = FACE_OUTER_BOUND ( 'NONE', #284, .T. ) ;
#224 = CARTESIAN_POINT ( 'NONE',  ( 0.000000000000000000, 0.000000000000000000, 7.000000000000000000 ) ) ;
#225 = EDGE_CURVE ( 'NONE', #259, #220, #128, .T. ) ;
#226 = COORDINATED_UNIVERSAL_TIME_OFFSET ( 1, 0, .AHEAD. ) ;
#227 = CIRCLE ( 'NONE', #211, 7.000000000000000000 ) ;
#228 = EDGE_CURVE ( 'NONE', #56, #2, #47, .T. ) ;
#229 = FACE_OUTER_BOUND ( 'NONE', #93, .T. ) ;
#230 = EDGE_CURVE ( 'NONE', #4, #69, #30, .T. ) ;
#231 = AXIS2_PLACEMENT_3D ( 'NONE', #13, #102, #152 ) ;
#232 = CYLINDRICAL_SURFACE ( 'NONE', #235, 7.000000000000000000 ) ;
#233 = CARTESIAN_POINT ( 'NONE',  ( -7.000000000000000000, 0.000000000000000000, 7.200000000000011724 ) ) ;
#234 = VECTOR ( 'NONE', #249, 1000.000000000000000 ) ;
#235 = AXIS2_PLACEMENT_3D ( 'NONE', #90, #182, #132 ) ;
#236 = DIRECTION ( 'NONE',  ( -0.000000000000000000, -0.000000000000000000, -1.000000000000000000 ) ) ;
#237 = DIRECTION ( 'NONE',  ( 0.000000000000000000, -1.000000000000000000, 0.000000000000000000 ) ) ;
#238 = CC_DESIGN_DATE_AND_TIME_ASSIGNMENT ( #114, #9, ( #206 ) ) ;
#239 = EDGE_LOOP ( 'NONE', ( #31, #181, #88, #115 ) ) ;
#240 = PERSON_AND_ORGANIZATION ( #130, #108 ) ;
#241 = EDGE_LOOP ( 'NONE', ( #286, #59, #288, #99 ) ) ;
#242 = ADVANCED_FACE ( 'NONE', ( #305, #137 ), #205, .T. ) ;
#243 = DATE_AND_TIME ( #54, #176 ) ;
#244 = ORIENTED_EDGE ( 'NONE', *, *, #175, .F. ) ;
#245 = PERSON_AND_ORGANIZATION ( #130, #108 ) ;
#246 = SECURITY_CLASSIFICATION_LEVEL ( 'unclassified' ) ;
#247 = FACE_OUTER_BOUND ( 'NONE', #188, .T. ) ;
#248 = DIRECTION ( 'NONE',  ( -0.000000000000000000, -0.000000000000000000, -1.000000000000000000 ) ) ;
#249 = DIRECTION ( 'NONE',  ( -0.000000000000000000, -0.000000000000000000, -1.000000000000000000 ) ) ;
#250 = FACE_OUTER_BOUND ( 'NONE', #241, .T. ) ;
#251 =( GEOMETRIC_REPRESENTATION_CONTEXT ( 3 ) GLOBAL_UNCERTAINTY_ASSIGNED_CONTEXT ( ( #184 ) ) GLOBAL_UNIT_ASSIGNED_CONTEXT ( ( #84, #253, #107 ) ) REPRESENTATION_CONTEXT ( 'NONE', 'WORKASPACE' ) );
#252 = DIRECTION ( 'NONE',  ( 1.000000000000000000, 0.000000000000000000, 0.000000000000000000 ) ) ;
#253 =( NAMED_UNIT ( * ) PLANE_ANGLE_UNIT ( ) SI_UNIT ( $, .RADIAN. ) );
#254 = DIRECTION ( 'NONE',  ( 1.000000000000000000, 0.000000000000000000, 0.000000000000000000 ) ) ;
#255 = DIRECTION ( 'NONE',  ( -0.000000000000000000, -0.000000000000000000, -1.000000000000000000 ) ) ;
#256 = CIRCLE ( 'NONE', #219, 0.1999999999999996503 ) ;
#257 = LOCAL_TIME ( 14, 22, 11.00000000000000000, #226 ) ;
#258 = DIRECTION ( 'NONE',  ( 1.000000000000000000, 0.000000000000000000, 0.000000000000000000 ) ) ;
#259 = VERTEX_POINT ( 'NONE', #279 ) ;
#260 = APPROVAL_STATUS ( 'not_yet_approved' ) ;
#261 = VERTEX_POINT ( 'NONE', #233 ) ;
#262 = ORIENTED_EDGE ( 'NONE', *, *, #275, .T. ) ;
#263 = CALENDAR_DATE ( 2022, 7, 7 ) ;
#264 = ORIENTED_EDGE ( 'NONE', *, *, #83, .F. ) ;
#265 = CARTESIAN_POINT ( 'NONE',  ( 0.000000000000000000, 0.000000000000000000, 0.000000000000000000 ) ) ;
#266 = ADVANCED_FACE ( 'NONE', ( #65 ), #112, .F. ) ;
#267 = ORIENTED_EDGE ( 'NONE', *, *, #18, .F. ) ;
#268 = DIRECTION ( 'NONE',  ( 0.000000000000000000, 0.000000000000000000, 1.000000000000000000 ) ) ;
#269 = APPROVAL ( #91, 'NEURÈENÝ' ) ;
#270 = DIRECTION ( 'NONE',  ( 1.224646799147353207E-16, 1.000000000000000000, -0.000000000000000000 ) ) ;
#271 = EDGE_CURVE ( 'NONE', #2, #4, #23, .T. ) ;
#272 = CARTESIAN_POINT ( 'NONE',  ( -7.200000000000000178, 8.817456953860942303E-16, 7.000000000000006217 ) ) ;
#273 = APPROVAL_DATE_TIME ( #204, #269 ) ;
#274 = AXIS2_PLACEMENT_3D ( 'NONE', #67, #19, #158 ) ;
#275 = EDGE_CURVE ( 'NONE', #261, #33, #81, .T. ) ;
#276 = AXIS2_PLACEMENT_3D ( 'NONE', #208, #302, #277 ) ;
#277 = DIRECTION ( 'NONE',  ( 1.000000000000000000, 0.000000000000000000, 0.000000000000000000 ) ) ;
#278 = DIRECTION ( 'NONE',  ( -0.000000000000000000, -0.000000000000000000, -1.000000000000000000 ) ) ;
#279 = CARTESIAN_POINT ( 'NONE',  ( 7.000000000000000000, 8.572527594031473190E-16, 257.0000000000000000 ) ) ;
#280 = ORIENTED_EDGE ( 'NONE', *, *, #197, .F. ) ;
#281 = CARTESIAN_POINT ( 'NONE',  ( 0.000000000000000000, 0.000000000000000000, 7.000000000000000000 ) ) ;
#282 = ORIENTED_EDGE ( 'NONE', *, *, #291, .F. ) ;
#283 = CALENDAR_DATE ( 2022, 7, 7 ) ;
#284 = EDGE_LOOP ( 'NONE', ( #244, #280, #209, #195 ) ) ;
#285 = DIRECTION ( 'NONE',  ( 0.000000000000000000, 0.000000000000000000, 1.000000000000000000 ) ) ;
#286 = ORIENTED_EDGE ( 'NONE', *, *, #168, .F. ) ;
#287 = CALENDAR_DATE ( 2022, 7, 7 ) ;
#288 = ORIENTED_EDGE ( 'NONE', *, *, #230, .T. ) ;
#289 = DIRECTION ( 'NONE',  ( -0.000000000000000000, -0.000000000000000000, -1.000000000000000000 ) ) ;
#290 = CC_DESIGN_PERSON_AND_ORGANIZATION_ASSIGNMENT ( #240, #186, ( #298 ) ) ;
#291 = EDGE_CURVE ( 'NONE', #33, #167, #12, .T. ) ;
#292 = CARTESIAN_POINT ( 'NONE',  ( 0.000000000000000000, 0.000000000000000000, 7.200000000000011724 ) ) ;
#293 = CARTESIAN_POINT ( 'NONE',  ( -11.00000000000000000, 0.000000000000000000, 0.000000000000000000 ) ) ;
#294 = CARTESIAN_POINT ( 'NONE',  ( 0.000000000000000000, 0.000000000000000000, 7.000000000000000000 ) ) ;
#295 = ADVANCED_FACE ( 'NONE', ( #210 ), #232, .T. ) ;
#296 = CALENDAR_DATE ( 2022, 7, 7 ) ;
#297 = DIRECTION ( 'NONE',  ( 0.000000000000000000, 0.000000000000000000, -1.000000000000000000 ) ) ;
#298 = PRODUCT_DEFINITION_FORMATION_WITH_SPECIFIED_SOURCE ( 'LIBOVOLNÝ', '', #24, .NOT_KNOWN. ) ;
#299 = CARTESIAN_POINT ( 'NONE',  ( 11.00000000000000000, 1.347111479062088405E-15, 7.000000000000000000 ) ) ;
#300 = CC_DESIGN_PERSON_AND_ORGANIZATION_ASSIGNMENT ( #70, #52, ( #103 ) ) ;
#301 = DIRECTION ( 'NONE',  ( 0.000000000000000000, 0.000000000000000000, 1.000000000000000000 ) ) ;
#302 = DIRECTION ( 'NONE',  ( 0.000000000000000000, 0.000000000000000000, 1.000000000000000000 ) ) ;
#303 = CARTESIAN_POINT ( 'NONE',  ( -7.000000000000000000, 0.000000000000000000, 257.0000000000000000 ) ) ;
#304 = EDGE_CURVE ( 'NONE', #167, #163, #307, .T. ) ;
#305 = FACE_BOUND ( 'NONE', #26, .T. ) ;
#306 = AXIS2_PLACEMENT_3D ( 'NONE', #224, #289, #76 ) ;
#307 = CIRCLE ( 'NONE', #134, 7.200000000000000178 ) ;
ENDSEC;
END-ISO-10303-21;
