ISO-10303-21;
HEADER;
FILE_DESCRIPTION (( 'STEP AP203' ),
    '1' );
FILE_NAME ('05eb.STEP',
    '2022-07-07T12:45:17',
    ( '' ),
    ( '' ),
    'SwSTEP 2.0',
    'SolidWorks 2019',
    '' );
FILE_SCHEMA (( 'CONFIG_CONTROL_DESIGN' ));
ENDSEC;

DATA;
#1 = LOCAL_TIME ( 14, 45, 16.00000000000000000, #163 ) ;
#2 = EDGE_CURVE ( 'NONE', #55, #124, #182, .T. ) ;
#3 = AXIS2_PLACEMENT_3D ( 'NONE', #15, #127, #225 ) ;
#4 = DIRECTION ( 'NONE',  ( 1.000000000000000000, 0.000000000000000000, 0.000000000000000000 ) ) ;
#5 = VECTOR ( 'NONE', #293, 1000.000000000000000 ) ;
#6 = FACE_OUTER_BOUND ( 'NONE', #168, .T. ) ;
#7 = PLANE ( 'NONE',  #87 ) ;
#8 = CARTESIAN_POINT ( 'NONE',  ( 0.000000000000000000, 0.000000000000000000, 3.200000000000008171 ) ) ;
#9 = DIRECTION ( 'NONE',  ( 0.000000000000000000, 0.000000000000000000, 1.000000000000000000 ) ) ;
#10 = VERTEX_POINT ( 'NONE', #82 ) ;
#11 = CIRCLE ( 'NONE', #166, 2.600000000000000089 ) ;
#12 = CARTESIAN_POINT ( 'NONE',  ( 0.000000000000000000, 0.000000000000000000, 3.200000000000008171 ) ) ;
#13 = LOCAL_TIME ( 14, 45, 16.00000000000000000, #112 ) ;
#14 = EDGE_CURVE ( 'NONE', #198, #77, #130, .T. ) ;
#15 = CARTESIAN_POINT ( 'NONE',  ( 0.000000000000000000, 0.000000000000000000, 203.0000000000000000 ) ) ;
#16 = DIRECTION ( 'NONE',  ( 1.000000000000000000, 0.000000000000000000, 0.000000000000000000 ) ) ;
#17 = CARTESIAN_POINT ( 'NONE',  ( -5.000000000000000000, 0.000000000000000000, 3.000000000000000000 ) ) ;
#18 = DIRECTION ( 'NONE',  ( -1.000000000000000000, 0.000000000000000000, 0.000000000000000000 ) ) ;
#19 = CIRCLE ( 'NONE', #99, 5.000000000000000000 ) ;
#20 = APPROVAL_STATUS ( 'not_yet_approved' ) ;
#21 = APPROVAL_ROLE ( '' ) ;
#22 = APPROVAL_DATE_TIME ( #302, #143 ) ;
#23 = ORIENTED_EDGE ( 'NONE', *, *, #206, .F. ) ;
#24 = EDGE_CURVE ( 'NONE', #10, #94, #232, .T. ) ;
#25 = APPLICATION_PROTOCOL_DEFINITION ( 'international standard', 'config_control_design', 1994, #95 ) ;
#26 = UNCERTAINTY_MEASURE_WITH_UNIT (LENGTH_MEASURE( 1.000000000000000082E-05 ), #102, 'distance_accuracy_value', 'NONE');
#27 = AXIS2_PLACEMENT_3D ( 'NONE', #248, #227, #157 ) ;
#28 = CARTESIAN_POINT ( 'NONE',  ( -5.000000000000000000, 0.000000000000000000, 0.000000000000000000 ) ) ;
#29 = ORIENTED_EDGE ( 'NONE', *, *, #121, .T. ) ;
#30 = VECTOR ( 'NONE', #134, 1000.000000000000000 ) ;
#31 = DIRECTION ( 'NONE',  ( -0.000000000000000000, -0.000000000000000000, -1.000000000000000000 ) ) ;
#32 = EDGE_LOOP ( 'NONE', ( #37, #169 ) ) ;
#33 = CARTESIAN_POINT ( 'NONE',  ( 2.600000000000000089, 3.184081677783118191E-16, 203.0000000000000000 ) ) ;
#34 = DIRECTION ( 'NONE',  ( 1.000000000000000000, 0.000000000000000000, 0.000000000000000000 ) ) ;
#35 = CIRCLE ( 'NONE', #205, 2.600000000000000089 ) ;
#36 = EDGE_CURVE ( 'NONE', #97, #198, #35, .T. ) ;
#37 = ORIENTED_EDGE ( 'NONE', *, *, #206, .T. ) ;
#38 = CARTESIAN_POINT ( 'NONE',  ( 5.000000000000000000, 6.123233995736766282E-16, 3.000000000000000000 ) ) ;
#39 = CARTESIAN_POINT ( 'NONE',  ( 2.600000000000000089, 3.184081677783118191E-16, 203.0000000000000000 ) ) ;
#40 = FACE_OUTER_BOUND ( 'NONE', #142, .T. ) ;
#41 = CALENDAR_DATE ( 2022, 7, 7 ) ;
#42 = AXIS2_PLACEMENT_3D ( 'NONE', #58, #129, #80 ) ;
#43 = AXIS2_PLACEMENT_3D ( 'NONE', #158, #199, #16 ) ;
#44 = PERSON_AND_ORGANIZATION ( #305, #47 ) ;
#45 = CC_DESIGN_PERSON_AND_ORGANIZATION_ASSIGNMENT ( #234, #159, ( #276 ) ) ;
#46 = PERSON_AND_ORGANIZATION ( #305, #47 ) ;
#47 = ORGANIZATION ( 'NEURÈENÝ', 'NEURÈENÝ', '' ) ;
#48 = EDGE_CURVE ( 'NONE', #77, #185, #93, .T. ) ;
#49 = APPROVAL_PERSON_ORGANIZATION ( #139, #237, #114 ) ;
#50 = ORIENTED_EDGE ( 'NONE', *, *, #105, .T. ) ;
#51 = CARTESIAN_POINT ( 'NONE',  ( 0.000000000000000000, 0.000000000000000000, 0.000000000000000000 ) ) ;
#52 = FACE_OUTER_BOUND ( 'NONE', #68, .T. ) ;
#53 = ADVANCED_FACE ( 'NONE', ( #6 ), #294, .F. ) ;
#54 = FACE_OUTER_BOUND ( 'NONE', #195, .T. ) ;
#55 = VERTEX_POINT ( 'NONE', #286 ) ;
#56 = FACE_OUTER_BOUND ( 'NONE', #101, .T. ) ;
#57 = CLOSED_SHELL ( 'NONE', ( #71, #196, #254, #144, #211, #156, #261, #177, #53 ) ) ;
#58 = CARTESIAN_POINT ( 'NONE',  ( 2.799999999999999822, 0.000000000000000000, 3.200000000000008171 ) ) ;
#59 = AXIS2_PLACEMENT_3D ( 'NONE', #107, #220, #247 ) ;
#60 = PLANE ( 'NONE',  #233 ) ;
#61 = APPLICATION_PROTOCOL_DEFINITION ( 'international standard', 'config_control_design', 1994, #273 ) ;
#62 = EDGE_CURVE ( 'NONE', #94, #10, #239, .T. ) ;
#63 = DIRECTION ( 'NONE',  ( 1.000000000000000000, 0.000000000000000000, 0.000000000000000000 ) ) ;
#64 = COORDINATED_UNIVERSAL_TIME_OFFSET ( 1, 0, .AHEAD. ) ;
#65 = CIRCLE ( 'NONE', #242, 2.600000000000000089 ) ;
#66 = SECURITY_CLASSIFICATION_LEVEL ( 'unclassified' ) ;
#67 = ORIENTED_EDGE ( 'NONE', *, *, #62, .F. ) ;
#68 = EDGE_LOOP ( 'NONE', ( #246, #90, #23, #187 ) ) ;
#69 = AXIS2_PLACEMENT_3D ( 'NONE', #152, #174, #150 ) ;
#70 = LOCAL_TIME ( 14, 45, 16.00000000000000000, #231 ) ;
#71 = ADVANCED_FACE ( 'NONE', ( #52 ), #264, .F. ) ;
#72 = EDGE_CURVE ( 'NONE', #97, #185, #307, .T. ) ;
#73 = DIRECTION ( 'NONE',  ( 1.000000000000000000, 0.000000000000000000, 0.000000000000000000 ) ) ;
#74 = DIRECTION ( 'NONE',  ( -1.000000000000000000, 1.224646799147353207E-16, 0.000000000000000000 ) ) ;
#75 = PLANE ( 'NONE',  #236 ) ;
#76 = CC_DESIGN_DATE_AND_TIME_ASSIGNMENT ( #250, #253, ( #289 ) ) ;
#77 = VERTEX_POINT ( 'NONE', #238 ) ;
#78 = APPROVAL_PERSON_ORGANIZATION ( #230, #92, #21 ) ;
#79 = DIRECTION ( 'NONE',  ( 1.000000000000000000, 0.000000000000000000, 0.000000000000000000 ) ) ;
#80 = DIRECTION ( 'NONE',  ( 0.000000000000000000, 0.000000000000000000, -1.000000000000000000 ) ) ;
#81 = DIRECTION ( 'NONE',  ( -0.000000000000000000, -0.000000000000000000, -1.000000000000000000 ) ) ;
#82 = CARTESIAN_POINT ( 'NONE',  ( 5.000000000000000000, 6.123233995736766282E-16, 0.000000000000000000 ) ) ;
#83 = CYLINDRICAL_SURFACE ( 'NONE', #59, 5.000000000000000000 ) ;
#84 = AXIS2_PLACEMENT_3D ( 'NONE', #154, #103, #132 ) ;
#85 = FACE_OUTER_BOUND ( 'NONE', #118, .T. ) ;
#86 = DATE_TIME_ROLE ( 'creation_date' ) ;
#87 = AXIS2_PLACEMENT_3D ( 'NONE', #197, #291, #288 ) ;
#88 = PRODUCT ( '05eb', '05eb', '', ( #251 ) ) ;
#89 = PERSON_AND_ORGANIZATION ( #305, #47 ) ;
#90 = ORIENTED_EDGE ( 'NONE', *, *, #14, .T. ) ;
#91 = DIRECTION ( 'NONE',  ( 0.000000000000000000, 0.000000000000000000, 1.000000000000000000 ) ) ;
#92 = APPROVAL ( #20, 'NEURÈENÝ' ) ;
#93 = CIRCLE ( 'NONE', #84, 2.799999999999999822 ) ;
#94 = VERTEX_POINT ( 'NONE', #28 ) ;
#95 = APPLICATION_CONTEXT ( 'configuration controlled 3d designs of mechanical parts and assemblies' ) ;
#96 = CC_DESIGN_PERSON_AND_ORGANIZATION_ASSIGNMENT ( #46, #297, ( #276 ) ) ;
#97 = VERTEX_POINT ( 'NONE', #217 ) ;
#98 = EDGE_CURVE ( 'NONE', #124, #55, #11, .T. ) ;
#99 = AXIS2_PLACEMENT_3D ( 'NONE', #241, #109, #126 ) ;
#100 = CARTESIAN_POINT ( 'NONE',  ( 0.000000000000000000, 0.000000000000000000, 203.0000000000000000 ) ) ;
#101 = EDGE_LOOP ( 'NONE', ( #67, #188 ) ) ;
#102 =( LENGTH_UNIT ( ) NAMED_UNIT ( * ) SI_UNIT ( .MILLI., .METRE. ) );
#103 = DIRECTION ( 'NONE',  ( -0.000000000000000000, -0.000000000000000000, -1.000000000000000000 ) ) ;
#104 = FACE_OUTER_BOUND ( 'NONE', #208, .T. ) ;
#105 = EDGE_CURVE ( 'NONE', #122, #94, #170, .T. ) ;
#106 = DIRECTION ( 'NONE',  ( 0.000000000000000000, 0.000000000000000000, 1.000000000000000000 ) ) ;
#107 = CARTESIAN_POINT ( 'NONE',  ( 0.000000000000000000, 0.000000000000000000, 3.000000000000000000 ) ) ;
#108 = DIRECTION ( 'NONE',  ( 0.000000000000000000, 0.000000000000000000, 1.000000000000000000 ) ) ;
#109 = DIRECTION ( 'NONE',  ( 0.000000000000000000, 0.000000000000000000, 1.000000000000000000 ) ) ;
#110 = DIRECTION ( 'NONE',  ( -0.000000000000000000, -0.000000000000000000, -1.000000000000000000 ) ) ;
#111 = PERSON_AND_ORGANIZATION_ROLE ( 'design_owner' ) ;
#112 = COORDINATED_UNIVERSAL_TIME_OFFSET ( 1, 0, .AHEAD. ) ;
#113 = APPROVAL_STATUS ( 'not_yet_approved' ) ;
#114 = APPROVAL_ROLE ( '' ) ;
#115 = PRODUCT_DEFINITION ( 'NEZNÁMÝ', '', #276, #258 ) ;
#116 = ORIENTED_EDGE ( 'NONE', *, *, #121, .F. ) ;
#117 = CARTESIAN_POINT ( 'NONE',  ( 0.000000000000000000, 0.000000000000000000, 0.000000000000000000 ) ) ;
#118 = EDGE_LOOP ( 'NONE', ( #303, #148, #243, #192 ) ) ;
#119 = AXIS2_PLACEMENT_3D ( 'NONE', #226, #274, #268 ) ;
#120 = CC_DESIGN_APPROVAL ( #237, ( #289 ) ) ;
#121 = EDGE_CURVE ( 'NONE', #122, #171, #200, .T. ) ;
#122 = VERTEX_POINT ( 'NONE', #17 ) ;
#123 = ADVANCED_BREP_SHAPE_REPRESENTATION ( '05eb', ( #235, #138 ), #299 ) ;
#124 = VERTEX_POINT ( 'NONE', #39 ) ;
#125 = EDGE_CURVE ( 'NONE', #198, #97, #65, .T. ) ;
#126 = DIRECTION ( 'NONE',  ( 1.000000000000000000, 0.000000000000000000, 0.000000000000000000 ) ) ;
#127 = DIRECTION ( 'NONE',  ( 0.000000000000000000, 0.000000000000000000, 1.000000000000000000 ) ) ;
#128 = CARTESIAN_POINT ( 'NONE',  ( 0.000000000000000000, 0.000000000000000000, 0.000000000000000000 ) ) ;
#129 = DIRECTION ( 'NONE',  ( 0.000000000000000000, -1.000000000000000000, 0.000000000000000000 ) ) ;
#130 = CIRCLE ( 'NONE', #216, 0.2000000000000000944 ) ;
#131 = CARTESIAN_POINT ( 'NONE',  ( 5.000000000000000000, 6.123233995736766282E-16, 3.000000000000000000 ) ) ;
#132 = DIRECTION ( 'NONE',  ( 1.000000000000000000, 0.000000000000000000, 0.000000000000000000 ) ) ;
#133 = FACE_OUTER_BOUND ( 'NONE', #257, .T. ) ;
#134 = DIRECTION ( 'NONE',  ( -0.000000000000000000, -0.000000000000000000, -1.000000000000000000 ) ) ;
#135 = CARTESIAN_POINT ( 'NONE',  ( 2.799999999999999822, 0.000000000000000000, 3.000000000000004441 ) ) ;
#136 = PERSON_AND_ORGANIZATION_ROLE ( 'classification_officer' ) ;
#137 = AXIS2_PLACEMENT_3D ( 'NONE', #179, #271, #290 ) ;
#138 = AXIS2_PLACEMENT_3D ( 'NONE', #117, #91, #63 ) ;
#139 = PERSON_AND_ORGANIZATION ( #305, #47 ) ;
#140 = CALENDAR_DATE ( 2022, 7, 7 ) ;
#141 =( NAMED_UNIT ( * ) SI_UNIT ( $, .STERADIAN. ) SOLID_ANGLE_UNIT ( ) );
#142 = EDGE_LOOP ( 'NONE', ( #165, #167 ) ) ;
#143 = APPROVAL ( #298, 'NEURÈENÝ' ) ;
#144 = ADVANCED_FACE ( 'NONE', ( #244 ), #83, .T. ) ;
#145 = AXIS2_PLACEMENT_3D ( 'NONE', #295, #178, #181 ) ;
#146 = ORIENTED_EDGE ( 'NONE', *, *, #160, .F. ) ;
#147 = CC_DESIGN_PERSON_AND_ORGANIZATION_ASSIGNMENT ( #44, #111, ( #88 ) ) ;
#148 = ORIENTED_EDGE ( 'NONE', *, *, #256, .T. ) ;
#149 = DIRECTION ( 'NONE',  ( 1.000000000000000000, 0.000000000000000000, -0.000000000000000000 ) ) ;
#150 = DIRECTION ( 'NONE',  ( 1.000000000000000000, 0.000000000000000000, 0.000000000000000000 ) ) ;
#151 = CYLINDRICAL_SURFACE ( 'NONE', #145, 5.000000000000000000 ) ;
#152 = CARTESIAN_POINT ( 'NONE',  ( 0.000000000000000000, 0.000000000000000000, 0.000000000000000000 ) ) ;
#153 = FACE_BOUND ( 'NONE', #32, .T. ) ;
#154 = CARTESIAN_POINT ( 'NONE',  ( 0.000000000000000000, 0.000000000000000000, 3.000000000000000000 ) ) ;
#155 = DIRECTION ( 'NONE',  ( 0.000000000000000000, 0.000000000000000000, 1.000000000000000000 ) ) ;
#156 = ADVANCED_FACE ( 'NONE', ( #56 ), #75, .F. ) ;
#157 = DIRECTION ( 'NONE',  ( 1.000000000000000000, 0.000000000000000000, 0.000000000000000000 ) ) ;
#158 = CARTESIAN_POINT ( 'NONE',  ( 0.000000000000000000, 0.000000000000000000, 3.000000000000000000 ) ) ;
#159 = PERSON_AND_ORGANIZATION_ROLE ( 'design_supplier' ) ;
#160 = EDGE_CURVE ( 'NONE', #124, #97, #266, .T. ) ;
#161 = DATE_AND_TIME ( #186, #70 ) ;
#162 = APPROVAL_DATE_TIME ( #184, #237 ) ;
#163 = COORDINATED_UNIVERSAL_TIME_OFFSET ( 1, 0, .AHEAD. ) ;
#164 = AXIS2_PLACEMENT_3D ( 'NONE', #269, #287, #4 ) ;
#165 = ORIENTED_EDGE ( 'NONE', *, *, #2, .T. ) ;
#166 = AXIS2_PLACEMENT_3D ( 'NONE', #100, #285, #73 ) ;
#167 = ORIENTED_EDGE ( 'NONE', *, *, #98, .T. ) ;
#168 = EDGE_LOOP ( 'NONE', ( #240, #279, #259, #215 ) ) ;
#169 = ORIENTED_EDGE ( 'NONE', *, *, #48, .T. ) ;
#170 = LINE ( 'NONE', #263, #30 ) ;
#171 = VERTEX_POINT ( 'NONE', #131 ) ;
#172 = CYLINDRICAL_SURFACE ( 'NONE', #119, 2.600000000000000089 ) ;
#173 = VECTOR ( 'NONE', #110, 1000.000000000000000 ) ;
#174 = DIRECTION ( 'NONE',  ( 0.000000000000000000, 0.000000000000000000, 1.000000000000000000 ) ) ;
#175 = CARTESIAN_POINT ( 'NONE',  ( 0.000000000000000000, 0.000000000000000000, 3.000000000000000000 ) ) ;
#176 = ORIENTED_EDGE ( 'NONE', *, *, #2, .F. ) ;
#177 = ADVANCED_FACE ( 'NONE', ( #40 ), #7, .T. ) ;
#178 = DIRECTION ( 'NONE',  ( -0.000000000000000000, -0.000000000000000000, -1.000000000000000000 ) ) ;
#179 = CARTESIAN_POINT ( 'NONE',  ( 0.000000000000000000, 0.000000000000000000, 3.200000000000008171 ) ) ;
#180 = CARTESIAN_POINT ( 'NONE',  ( -2.600000000000000089, 0.000000000000000000, 203.0000000000000000 ) ) ;
#181 = DIRECTION ( 'NONE',  ( -1.000000000000000000, 0.000000000000000000, 0.000000000000000000 ) ) ;
#182 = CIRCLE ( 'NONE', #3, 2.600000000000000089 ) ;
#183 = LOCAL_TIME ( 14, 45, 16.00000000000000000, #64 ) ;
#184 = DATE_AND_TIME ( #41, #284 ) ;
#185 = VERTEX_POINT ( 'NONE', #135 ) ;
#186 = CALENDAR_DATE ( 2022, 7, 7 ) ;
#187 = ORIENTED_EDGE ( 'NONE', *, *, #72, .F. ) ;
#188 = ORIENTED_EDGE ( 'NONE', *, *, #24, .F. ) ;
#189 = AXIS2_PLACEMENT_3D ( 'NONE', #228, #81, #18 ) ;
#190 = ORIENTED_EDGE ( 'NONE', *, *, #160, .T. ) ;
#191 = DIRECTION ( 'NONE',  ( 1.000000000000000000, 0.000000000000000000, -0.000000000000000000 ) ) ;
#192 = ORIENTED_EDGE ( 'NONE', *, *, #105, .F. ) ;
#193 = CARTESIAN_POINT ( 'NONE',  ( -2.600000000000000089, 0.000000000000000000, 3.200000000000008171 ) ) ;
#194 = CC_DESIGN_PERSON_AND_ORGANIZATION_ASSIGNMENT ( #89, #277, ( #115 ) ) ;
#195 = EDGE_LOOP ( 'NONE', ( #210, #190, #245, #260 ) ) ;
#196 = ADVANCED_FACE ( 'NONE', ( #54 ), #272, .T. ) ;
#197 = CARTESIAN_POINT ( 'NONE',  ( 0.000000000000000000, 0.000000000000000000, 203.0000000000000000 ) ) ;
#198 = VERTEX_POINT ( 'NONE', #193 ) ;
#199 = DIRECTION ( 'NONE',  ( -0.000000000000000000, -0.000000000000000000, -1.000000000000000000 ) ) ;
#200 = CIRCLE ( 'NONE', #27, 5.000000000000000000 ) ;
#201 = CALENDAR_DATE ( 2022, 7, 7 ) ;
#202 = EDGE_CURVE ( 'NONE', #55, #198, #222, .T. ) ;
#203 = APPROVAL_DATE_TIME ( #255, #92 ) ;
#204 = COORDINATED_UNIVERSAL_TIME_OFFSET ( 1, 0, .AHEAD. ) ;
#205 = AXIS2_PLACEMENT_3D ( 'NONE', #8, #108, #34 ) ;
#206 = EDGE_CURVE ( 'NONE', #185, #77, #224, .T. ) ;
#207 =( NAMED_UNIT ( * ) PLANE_ANGLE_UNIT ( ) SI_UNIT ( $, .RADIAN. ) );
#208 = EDGE_LOOP ( 'NONE', ( #29, #282 ) ) ;
#209 = APPROVAL_ROLE ( '' ) ;
#210 = ORIENTED_EDGE ( 'NONE', *, *, #98, .F. ) ;
#211 = ADVANCED_FACE ( 'NONE', ( #153, #104 ), #60, .T. ) ;
#212 = ORIENTED_EDGE ( 'NONE', *, *, #202, .T. ) ;
#213 = APPROVAL_PERSON_ORGANIZATION ( #296, #143, #209 ) ;
#214 = ORIENTED_EDGE ( 'NONE', *, *, #62, .T. ) ;
#215 = ORIENTED_EDGE ( 'NONE', *, *, #48, .F. ) ;
#216 = AXIS2_PLACEMENT_3D ( 'NONE', #221, #219, #74 ) ;
#217 = CARTESIAN_POINT ( 'NONE',  ( 2.600000000000000089, 3.184081677783118191E-16, 3.200000000000008171 ) ) ;
#218 = CC_DESIGN_SECURITY_CLASSIFICATION ( #289, ( #276 ) ) ;
#219 = DIRECTION ( 'NONE',  ( 1.224646799147353207E-16, 1.000000000000000000, -0.000000000000000000 ) ) ;
#220 = DIRECTION ( 'NONE',  ( -0.000000000000000000, -0.000000000000000000, -1.000000000000000000 ) ) ;
#221 = CARTESIAN_POINT ( 'NONE',  ( -2.799999999999999822, 3.429011037612588783E-16, 3.200000000000008171 ) ) ;
#222 = LINE ( 'NONE', #180, #5 ) ;
#223 = ORIENTED_EDGE ( 'NONE', *, *, #125, .T. ) ;
#224 = CIRCLE ( 'NONE', #43, 2.799999999999999822 ) ;
#225 = DIRECTION ( 'NONE',  ( 1.000000000000000000, 0.000000000000000000, 0.000000000000000000 ) ) ;
#226 = CARTESIAN_POINT ( 'NONE',  ( 0.000000000000000000, 0.000000000000000000, 203.0000000000000000 ) ) ;
#227 = DIRECTION ( 'NONE',  ( 0.000000000000000000, 0.000000000000000000, 1.000000000000000000 ) ) ;
#228 = CARTESIAN_POINT ( 'NONE',  ( 0.000000000000000000, 0.000000000000000000, 203.0000000000000000 ) ) ;
#229 = SHAPE_DEFINITION_REPRESENTATION ( #301, #123 ) ;
#230 = PERSON_AND_ORGANIZATION ( #305, #47 ) ;
#231 = COORDINATED_UNIVERSAL_TIME_OFFSET ( 1, 0, .AHEAD. ) ;
#232 = CIRCLE ( 'NONE', #69, 5.000000000000000000 ) ;
#233 = AXIS2_PLACEMENT_3D ( 'NONE', #175, #155, #191 ) ;
#234 = PERSON_AND_ORGANIZATION ( #305, #47 ) ;
#235 = MANIFOLD_SOLID_BREP ( 'Zaoblit1', #57 ) ;
#236 = AXIS2_PLACEMENT_3D ( 'NONE', #128, #9, #149 ) ;
#237 = APPROVAL ( #113, 'NEURÈENÝ' ) ;
#238 = CARTESIAN_POINT ( 'NONE',  ( -2.799999999999999822, 3.429011037612589276E-16, 3.000000000000004441 ) ) ;
#239 = CIRCLE ( 'NONE', #280, 5.000000000000000000 ) ;
#240 = ORIENTED_EDGE ( 'NONE', *, *, #14, .F. ) ;
#241 = CARTESIAN_POINT ( 'NONE',  ( 0.000000000000000000, 0.000000000000000000, 3.000000000000000000 ) ) ;
#242 = AXIS2_PLACEMENT_3D ( 'NONE', #12, #249, #79 ) ;
#243 = ORIENTED_EDGE ( 'NONE', *, *, #24, .T. ) ;
#244 = FACE_OUTER_BOUND ( 'NONE', #306, .T. ) ;
#245 = ORIENTED_EDGE ( 'NONE', *, *, #36, .T. ) ;
#246 = ORIENTED_EDGE ( 'NONE', *, *, #125, .F. ) ;
#247 = DIRECTION ( 'NONE',  ( -1.000000000000000000, 0.000000000000000000, 0.000000000000000000 ) ) ;
#248 = CARTESIAN_POINT ( 'NONE',  ( 0.000000000000000000, 0.000000000000000000, 3.000000000000000000 ) ) ;
#249 = DIRECTION ( 'NONE',  ( 0.000000000000000000, 0.000000000000000000, 1.000000000000000000 ) ) ;
#250 = DATE_AND_TIME ( #140, #183 ) ;
#251 = MECHANICAL_CONTEXT ( 'NONE', #273, 'mechanical' ) ;
#252 = CC_DESIGN_APPROVAL ( #92, ( #276 ) ) ;
#253 = DATE_TIME_ROLE ( 'classification_date' ) ;
#254 = ADVANCED_FACE ( 'NONE', ( #85 ), #151, .T. ) ;
#255 = DATE_AND_TIME ( #201, #13 ) ;
#256 = EDGE_CURVE ( 'NONE', #171, #10, #270, .T. ) ;
#257 = EDGE_LOOP ( 'NONE', ( #146, #176, #212, #223 ) ) ;
#258 = DESIGN_CONTEXT ( 'detailed design', #95, 'design' ) ;
#259 = ORIENTED_EDGE ( 'NONE', *, *, #72, .T. ) ;
#260 = ORIENTED_EDGE ( 'NONE', *, *, #202, .F. ) ;
#261 = ADVANCED_FACE ( 'NONE', ( #133 ), #172, .T. ) ;
#262 = CC_DESIGN_APPROVAL ( #143, ( #115 ) ) ;
#263 = CARTESIAN_POINT ( 'NONE',  ( -5.000000000000000000, 0.000000000000000000, 3.000000000000000000 ) ) ;
#264 = TOROIDAL_SURFACE ( 'NONE', #137, 2.799999999999999822, 0.2000000000000000111 ) ;
#265 = ORIENTED_EDGE ( 'NONE', *, *, #256, .F. ) ;
#266 = LINE ( 'NONE', #33, #173 ) ;
#267 = DIRECTION ( 'NONE',  ( 1.000000000000000000, 0.000000000000000000, 0.000000000000000000 ) ) ;
#268 = DIRECTION ( 'NONE',  ( -1.000000000000000000, 0.000000000000000000, 0.000000000000000000 ) ) ;
#269 = CARTESIAN_POINT ( 'NONE',  ( 0.000000000000000000, 0.000000000000000000, 3.200000000000008171 ) ) ;
#270 = LINE ( 'NONE', #38, #281 ) ;
#271 = DIRECTION ( 'NONE',  ( 0.000000000000000000, 0.000000000000000000, 1.000000000000000000 ) ) ;
#272 = CYLINDRICAL_SURFACE ( 'NONE', #189, 2.600000000000000089 ) ;
#273 = APPLICATION_CONTEXT ( 'configuration controlled 3d designs of mechanical parts and assemblies' ) ;
#274 = DIRECTION ( 'NONE',  ( -0.000000000000000000, -0.000000000000000000, -1.000000000000000000 ) ) ;
#275 = PERSON_AND_ORGANIZATION ( #305, #47 ) ;
#276 = PRODUCT_DEFINITION_FORMATION_WITH_SPECIFIED_SOURCE ( 'LIBOVOLNÝ', '', #88, .NOT_KNOWN. ) ;
#277 = PERSON_AND_ORGANIZATION_ROLE ( 'creator' ) ;
#278 = PRODUCT_RELATED_PRODUCT_CATEGORY ( 'detail', '', ( #88 ) ) ;
#279 = ORIENTED_EDGE ( 'NONE', *, *, #36, .F. ) ;
#280 = AXIS2_PLACEMENT_3D ( 'NONE', #51, #106, #267 ) ;
#281 = VECTOR ( 'NONE', #31, 1000.000000000000000 ) ;
#282 = ORIENTED_EDGE ( 'NONE', *, *, #283, .T. ) ;
#283 = EDGE_CURVE ( 'NONE', #171, #122, #19, .T. ) ;
#284 = LOCAL_TIME ( 14, 45, 16.00000000000000000, #204 ) ;
#285 = DIRECTION ( 'NONE',  ( 0.000000000000000000, 0.000000000000000000, 1.000000000000000000 ) ) ;
#286 = CARTESIAN_POINT ( 'NONE',  ( -2.600000000000000089, 0.000000000000000000, 203.0000000000000000 ) ) ;
#287 = DIRECTION ( 'NONE',  ( 0.000000000000000000, 0.000000000000000000, 1.000000000000000000 ) ) ;
#288 = DIRECTION ( 'NONE',  ( 1.000000000000000000, 0.000000000000000000, -0.000000000000000000 ) ) ;
#289 = SECURITY_CLASSIFICATION ( '', '', #66 ) ;
#290 = DIRECTION ( 'NONE',  ( 1.000000000000000000, 0.000000000000000000, 0.000000000000000000 ) ) ;
#291 = DIRECTION ( 'NONE',  ( 0.000000000000000000, 0.000000000000000000, 1.000000000000000000 ) ) ;
#292 = CC_DESIGN_PERSON_AND_ORGANIZATION_ASSIGNMENT ( #275, #136, ( #289 ) ) ;
#293 = DIRECTION ( 'NONE',  ( -0.000000000000000000, -0.000000000000000000, -1.000000000000000000 ) ) ;
#294 = TOROIDAL_SURFACE ( 'NONE', #164, 2.799999999999999822, 0.2000000000000000111 ) ;
#295 = CARTESIAN_POINT ( 'NONE',  ( 0.000000000000000000, 0.000000000000000000, 3.000000000000000000 ) ) ;
#296 = PERSON_AND_ORGANIZATION ( #305, #47 ) ;
#297 = PERSON_AND_ORGANIZATION_ROLE ( 'creator' ) ;
#298 = APPROVAL_STATUS ( 'not_yet_approved' ) ;
#299 =( GEOMETRIC_REPRESENTATION_CONTEXT ( 3 ) GLOBAL_UNCERTAINTY_ASSIGNED_CONTEXT ( ( #26 ) ) GLOBAL_UNIT_ASSIGNED_CONTEXT ( ( #102, #207, #141 ) ) REPRESENTATION_CONTEXT ( 'NONE', 'WORKASPACE' ) );
#300 = CC_DESIGN_DATE_AND_TIME_ASSIGNMENT ( #161, #86, ( #115 ) ) ;
#301 = PRODUCT_DEFINITION_SHAPE ( 'NONE', 'NONE',  #115 ) ;
#302 = DATE_AND_TIME ( #304, #1 ) ;
#303 = ORIENTED_EDGE ( 'NONE', *, *, #283, .F. ) ;
#304 = CALENDAR_DATE ( 2022, 7, 7 ) ;
#305 = PERSON ( 'NEURÈENÝ', 'NEURÈENÝ', 'NEURÈENÝ', ('NEURÈENÝ'), ('NEURÈENÝ'), ('NEURÈENÝ') ) ;
#306 = EDGE_LOOP ( 'NONE', ( #265, #116, #50, #214 ) ) ;
#307 = CIRCLE ( 'NONE', #42, 0.2000000000000000944 ) ;
ENDSEC;
END-ISO-10303-21;
