ISO-10303-21;
HEADER;
FILE_DESCRIPTION (( 'STEP AP203' ),
    '1' );
FILE_NAME ('ffee.STEP',
    '2022-07-07T12:26:21',
    ( '' ),
    ( '' ),
    'SwSTEP 2.0',
    'SolidWorks 2019',
    '' );
FILE_SCHEMA (( 'CONFIG_CONTROL_DESIGN' ));
ENDSEC;

DATA;
#1 = DIRECTION ( 'NONE',  ( -0.000000000000000000, -0.000000000000000000, -1.000000000000000000 ) ) ;
#2 = CARTESIAN_POINT ( 'NONE',  ( -5.099999999999999645, 0.000000000000000000, 5.199999999999982414 ) ) ;
#3 = DIRECTION ( 'NONE',  ( 0.000000000000000000, 0.000000000000000000, 1.000000000000000000 ) ) ;
#4 = VECTOR ( 'NONE', #92, 1000.000000000000000 ) ;
#5 = AXIS2_PLACEMENT_3D ( 'NONE', #306, #191, #260 ) ;
#6 = CC_DESIGN_PERSON_AND_ORGANIZATION_ASSIGNMENT ( #245, #175, ( #65 ) ) ;
#7 = SECURITY_CLASSIFICATION_LEVEL ( 'unclassified' ) ;
#8 = PERSON_AND_ORGANIZATION_ROLE ( 'design_owner' ) ;
#9 = PERSON_AND_ORGANIZATION_ROLE ( 'creator' ) ;
#10 = ADVANCED_FACE ( 'NONE', ( #300, #302 ), #106, .T. ) ;
#11 = ORIENTED_EDGE ( 'NONE', *, *, #120, .T. ) ;
#12 = CIRCLE ( 'NONE', #195, 5.299999999999998934 ) ;
#13 = VECTOR ( 'NONE', #66, 1000.000000000000000 ) ;
#14 = FACE_OUTER_BOUND ( 'NONE', #52, .T. ) ;
#15 = CYLINDRICAL_SURFACE ( 'NONE', #131, 5.099999999999999645 ) ;
#16 = EDGE_LOOP ( 'NONE', ( #296, #27, #110, #176 ) ) ;
#17 = LINE ( 'NONE', #82, #36 ) ;
#18 = ORGANIZATION ( 'NEURÈENÝ', 'NEURÈENÝ', '' ) ;
#19 = LINE ( 'NONE', #88, #13 ) ;
#20 = ADVANCED_FACE ( 'NONE', ( #31 ), #276, .T. ) ;
#21 = CARTESIAN_POINT ( 'NONE',  ( 0.000000000000000000, 0.000000000000000000, 5.000000000000000000 ) ) ;
#22 = CARTESIAN_POINT ( 'NONE',  ( 5.099999999999999645, 6.245698675651500839E-16, 5.199999999999982414 ) ) ;
#23 = CARTESIAN_POINT ( 'NONE',  ( 8.000000000000000000, 9.797174393178825657E-16, 0.000000000000000000 ) ) ;
#24 = CARTESIAN_POINT ( 'NONE',  ( 0.000000000000000000, 0.000000000000000000, 5.000000000000000000 ) ) ;
#25 = CLOSED_SHELL ( 'NONE', ( #159, #77, #177, #282, #10, #298, #107, #20, #146 ) ) ;
#26 = APPROVAL_ROLE ( '' ) ;
#27 = ORIENTED_EDGE ( 'NONE', *, *, #153, .T. ) ;
#28 = EDGE_LOOP ( 'NONE', ( #253, #11 ) ) ;
#29 = UNCERTAINTY_MEASURE_WITH_UNIT (LENGTH_MEASURE( 1.000000000000000082E-05 ), #267, 'distance_accuracy_value', 'NONE');
#30 = PERSON_AND_ORGANIZATION ( #293, #18 ) ;
#31 = FACE_OUTER_BOUND ( 'NONE', #160, .T. ) ;
#32 = CARTESIAN_POINT ( 'NONE',  ( 0.000000000000000000, 0.000000000000000000, 320.0000000000000000 ) ) ;
#33 = CC_DESIGN_PERSON_AND_ORGANIZATION_ASSIGNMENT ( #201, #217, ( #132 ) ) ;
#34 = EDGE_LOOP ( 'NONE', ( #64, #247 ) ) ;
#35 = ORIENTED_EDGE ( 'NONE', *, *, #210, .F. ) ;
#36 = VECTOR ( 'NONE', #181, 1000.000000000000000 ) ;
#37 = DIRECTION ( 'NONE',  ( 0.000000000000000000, 0.000000000000000000, 1.000000000000000000 ) ) ;
#38 = EDGE_CURVE ( 'NONE', #250, #219, #165, .T. ) ;
#39 = DIRECTION ( 'NONE',  ( 1.000000000000000000, 0.000000000000000000, 0.000000000000000000 ) ) ;
#40 = CARTESIAN_POINT ( 'NONE',  ( 0.000000000000000000, 0.000000000000000000, 0.000000000000000000 ) ) ;
#41 = DIRECTION ( 'NONE',  ( 1.224646799147353207E-16, 1.000000000000000000, -0.000000000000000000 ) ) ;
#42 =( GEOMETRIC_REPRESENTATION_CONTEXT ( 3 ) GLOBAL_UNCERTAINTY_ASSIGNED_CONTEXT ( ( #29 ) ) GLOBAL_UNIT_ASSIGNED_CONTEXT ( ( #267, #200, #155 ) ) REPRESENTATION_CONTEXT ( 'NONE', 'WORKASPACE' ) );
#43 = DIRECTION ( 'NONE',  ( 0.000000000000000000, 0.000000000000000000, 1.000000000000000000 ) ) ;
#44 = EDGE_CURVE ( 'NONE', #72, #255, #278, .T. ) ;
#45 = CARTESIAN_POINT ( 'NONE',  ( 0.000000000000000000, 0.000000000000000000, 0.000000000000000000 ) ) ;
#46 = DATE_TIME_ROLE ( 'classification_date' ) ;
#47 = CIRCLE ( 'NONE', #166, 5.099999999999999645 ) ;
#48 = CC_DESIGN_DATE_AND_TIME_ASSIGNMENT ( #53, #74, ( #65 ) ) ;
#49 = CALENDAR_DATE ( 2022, 7, 7 ) ;
#50 = ORIENTED_EDGE ( 'NONE', *, *, #236, .F. ) ;
#51 = COORDINATED_UNIVERSAL_TIME_OFFSET ( 1, 0, .AHEAD. ) ;
#52 = EDGE_LOOP ( 'NONE', ( #79, #187, #178, #102 ) ) ;
#53 = DATE_AND_TIME ( #73, #115 ) ;
#54 = ORIENTED_EDGE ( 'NONE', *, *, #113, .T. ) ;
#55 = AXIS2_PLACEMENT_3D ( 'NONE', #257, #251, #86 ) ;
#56 = CIRCLE ( 'NONE', #285, 8.000000000000000000 ) ;
#57 = ORIENTED_EDGE ( 'NONE', *, *, #113, .F. ) ;
#58 = EDGE_CURVE ( 'NONE', #219, #271, #299, .T. ) ;
#59 = ORIENTED_EDGE ( 'NONE', *, *, #61, .T. ) ;
#60 = CARTESIAN_POINT ( 'NONE',  ( 0.000000000000000000, 0.000000000000000000, 320.0000000000000000 ) ) ;
#61 = EDGE_CURVE ( 'NONE', #199, #228, #47, .T. ) ;
#62 = CARTESIAN_POINT ( 'NONE',  ( 5.299999999999998934, 0.000000000000000000, 4.999999999999991118 ) ) ;
#63 = DIRECTION ( 'NONE',  ( 1.000000000000000000, 0.000000000000000000, 0.000000000000000000 ) ) ;
#64 = ORIENTED_EDGE ( 'NONE', *, *, #189, .T. ) ;
#65 = PRODUCT_DEFINITION ( 'NEZNÁMÝ', '', #132, #104 ) ;
#66 = DIRECTION ( 'NONE',  ( -0.000000000000000000, -0.000000000000000000, -1.000000000000000000 ) ) ;
#67 = FACE_OUTER_BOUND ( 'NONE', #197, .T. ) ;
#68 = CARTESIAN_POINT ( 'NONE',  ( -8.000000000000000000, 0.000000000000000000, 0.000000000000000000 ) ) ;
#69 = LOCAL_TIME ( 14, 26, 21.00000000000000000, #71 ) ;
#70 = CYLINDRICAL_SURFACE ( 'NONE', #80, 8.000000000000000000 ) ;
#71 = COORDINATED_UNIVERSAL_TIME_OFFSET ( 1, 0, .AHEAD. ) ;
#72 = VERTEX_POINT ( 'NONE', #256 ) ;
#73 = CALENDAR_DATE ( 2022, 7, 7 ) ;
#74 = DATE_TIME_ROLE ( 'creation_date' ) ;
#75 = APPROVAL_STATUS ( 'not_yet_approved' ) ;
#76 = ORIENTED_EDGE ( 'NONE', *, *, #194, .F. ) ;
#77 = ADVANCED_FACE ( 'NONE', ( #14 ), #229, .T. ) ;
#78 = DIRECTION ( 'NONE',  ( 0.000000000000000000, 0.000000000000000000, 1.000000000000000000 ) ) ;
#79 = ORIENTED_EDGE ( 'NONE', *, *, #264, .F. ) ;
#80 = AXIS2_PLACEMENT_3D ( 'NONE', #238, #215, #233 ) ;
#81 = ORIENTED_EDGE ( 'NONE', *, *, #264, .T. ) ;
#82 = CARTESIAN_POINT ( 'NONE',  ( 5.099999999999999645, 6.245698675651500839E-16, 320.0000000000000000 ) ) ;
#83 = DIRECTION ( 'NONE',  ( -1.000000000000000000, 0.000000000000000000, 0.000000000000000000 ) ) ;
#84 = TOROIDAL_SURFACE ( 'NONE', #95, 5.299999999999998934, 0.2000000000000000111 ) ;
#85 = APPROVAL_PERSON_ORGANIZATION ( #101, #136, #26 ) ;
#86 = DIRECTION ( 'NONE',  ( 1.000000000000000000, 0.000000000000000000, -0.000000000000000000 ) ) ;
#87 = CARTESIAN_POINT ( 'NONE',  ( 0.000000000000000000, 0.000000000000000000, 320.0000000000000000 ) ) ;
#88 = CARTESIAN_POINT ( 'NONE',  ( -5.099999999999999645, 0.000000000000000000, 320.0000000000000000 ) ) ;
#89 = CIRCLE ( 'NONE', #183, 5.299999999999998934 ) ;
#90 = LINE ( 'NONE', #188, #4 ) ;
#91 = DIRECTION ( 'NONE',  ( 1.000000000000000000, 0.000000000000000000, 0.000000000000000000 ) ) ;
#92 = DIRECTION ( 'NONE',  ( -0.000000000000000000, -0.000000000000000000, -1.000000000000000000 ) ) ;
#93 = AXIS2_PLACEMENT_3D ( 'NONE', #60, #161, #135 ) ;
#94 = CARTESIAN_POINT ( 'NONE',  ( 5.299999999999998934, 0.000000000000000000, 5.199999999999982414 ) ) ;
#95 = AXIS2_PLACEMENT_3D ( 'NONE', #143, #43, #169 ) ;
#96 = CC_DESIGN_APPROVAL ( #294, ( #65 ) ) ;
#97 = EDGE_CURVE ( 'NONE', #255, #228, #17, .T. ) ;
#98 = PERSON_AND_ORGANIZATION ( #293, #18 ) ;
#99 = APPROVAL_ROLE ( '' ) ;
#100 = ORIENTED_EDGE ( 'NONE', *, *, #226, .F. ) ;
#101 = PERSON_AND_ORGANIZATION ( #293, #18 ) ;
#102 = ORIENTED_EDGE ( 'NONE', *, *, #252, .F. ) ;
#103 = PRODUCT_RELATED_PRODUCT_CATEGORY ( 'detail', '', ( #239 ) ) ;
#104 = DESIGN_CONTEXT ( 'detailed design', #184, 'design' ) ;
#105 = APPROVAL_STATUS ( 'not_yet_approved' ) ;
#106 = PLANE ( 'NONE',  #55 ) ;
#107 = ADVANCED_FACE ( 'NONE', ( #227 ), #15, .T. ) ;
#108 = CARTESIAN_POINT ( 'NONE',  ( 0.000000000000000000, 0.000000000000000000, 5.000000000000000000 ) ) ;
#109 = CARTESIAN_POINT ( 'NONE',  ( 0.000000000000000000, 0.000000000000000000, 320.0000000000000000 ) ) ;
#110 = ORIENTED_EDGE ( 'NONE', *, *, #226, .T. ) ;
#111 = LOCAL_TIME ( 14, 26, 21.00000000000000000, #51 ) ;
#112 = VERTEX_POINT ( 'NONE', #62 ) ;
#113 = EDGE_CURVE ( 'NONE', #199, #133, #258, .T. ) ;
#114 = DIRECTION ( 'NONE',  ( 1.000000000000000000, 0.000000000000000000, 0.000000000000000000 ) ) ;
#115 = LOCAL_TIME ( 14, 26, 21.00000000000000000, #124 ) ;
#116 = DIRECTION ( 'NONE',  ( 0.000000000000000000, 0.000000000000000000, 1.000000000000000000 ) ) ;
#117 = APPLICATION_CONTEXT ( 'configuration controlled 3d designs of mechanical parts and assemblies' ) ;
#118 = FACE_OUTER_BOUND ( 'NONE', #16, .T. ) ;
#119 = CARTESIAN_POINT ( 'NONE',  ( 0.000000000000000000, 0.000000000000000000, 5.199999999999982414 ) ) ;
#120 = EDGE_CURVE ( 'NONE', #133, #112, #89, .T. ) ;
#121 = DATE_AND_TIME ( #154, #111 ) ;
#122 = APPROVAL_ROLE ( '' ) ;
#123 = CALENDAR_DATE ( 2022, 7, 7 ) ;
#124 = COORDINATED_UNIVERSAL_TIME_OFFSET ( 1, 0, .AHEAD. ) ;
#125 = ORIENTED_EDGE ( 'NONE', *, *, #97, .F. ) ;
#126 = AXIS2_PLACEMENT_3D ( 'NONE', #119, #216, #193 ) ;
#127 = DATE_AND_TIME ( #173, #174 ) ;
#128 = APPROVAL_DATE_TIME ( #157, #140 ) ;
#129 = CC_DESIGN_PERSON_AND_ORGANIZATION_ASSIGNMENT ( #98, #288, ( #270 ) ) ;
#130 = DIRECTION ( 'NONE',  ( 0.000000000000000000, 0.000000000000000000, 1.000000000000000000 ) ) ;
#131 = AXIS2_PLACEMENT_3D ( 'NONE', #109, #207, #182 ) ;
#132 = PRODUCT_DEFINITION_FORMATION_WITH_SPECIFIED_SOURCE ( 'LIBOVOLNÝ', '', #239, .NOT_KNOWN. ) ;
#133 = VERTEX_POINT ( 'NONE', #287 ) ;
#134 = ORIENTED_EDGE ( 'NONE', *, *, #44, .F. ) ;
#135 = DIRECTION ( 'NONE',  ( 1.000000000000000000, 0.000000000000000000, -0.000000000000000000 ) ) ;
#136 = APPROVAL ( #75, 'NEURÈENÝ' ) ;
#137 = AXIS2_PLACEMENT_3D ( 'NONE', #235, #261, #144 ) ;
#138 = CIRCLE ( 'NONE', #156, 8.000000000000000000 ) ;
#139 = CARTESIAN_POINT ( 'NONE',  ( 0.000000000000000000, 0.000000000000000000, 0.000000000000000000 ) ) ;
#140 = APPROVAL ( #149, 'NEURÈENÝ' ) ;
#141 = DIRECTION ( 'NONE',  ( 0.000000000000000000, 0.000000000000000000, 1.000000000000000000 ) ) ;
#142 = LOCAL_TIME ( 14, 26, 21.00000000000000000, #218 ) ;
#143 = CARTESIAN_POINT ( 'NONE',  ( 0.000000000000000000, 0.000000000000000000, 5.199999999999982414 ) ) ;
#144 = DIRECTION ( 'NONE',  ( 1.000000000000000000, 0.000000000000000000, 0.000000000000000000 ) ) ;
#145 = DIRECTION ( 'NONE',  ( 0.000000000000000000, 0.000000000000000000, 1.000000000000000000 ) ) ;
#146 = ADVANCED_FACE ( 'NONE', ( #283 ), #84, .F. ) ;
#147 = AXIS2_PLACEMENT_3D ( 'NONE', #87, #37, #63 ) ;
#148 = CIRCLE ( 'NONE', #179, 8.000000000000000000 ) ;
#149 = APPROVAL_STATUS ( 'not_yet_approved' ) ;
#150 = CIRCLE ( 'NONE', #213, 0.1999999999999996503 ) ;
#151 = EDGE_LOOP ( 'NONE', ( #152, #54, #76, #304 ) ) ;
#152 = ORIENTED_EDGE ( 'NONE', *, *, #61, .F. ) ;
#153 = EDGE_CURVE ( 'NONE', #250, #164, #90, .T. ) ;
#154 = CALENDAR_DATE ( 2022, 7, 7 ) ;
#155 =( NAMED_UNIT ( * ) SI_UNIT ( $, .STERADIAN. ) SOLID_ANGLE_UNIT ( ) );
#156 = AXIS2_PLACEMENT_3D ( 'NONE', #139, #145, #91 ) ;
#157 = DATE_AND_TIME ( #123, #142 ) ;
#158 = ORIENTED_EDGE ( 'NONE', *, *, #44, .T. ) ;
#159 = ADVANCED_FACE ( 'NONE', ( #281 ), #268, .F. ) ;
#160 = EDGE_LOOP ( 'NONE', ( #158, #81 ) ) ;
#161 = DIRECTION ( 'NONE',  ( 0.000000000000000000, 0.000000000000000000, 1.000000000000000000 ) ) ;
#162 = CARTESIAN_POINT ( 'NONE',  ( -5.299999999999998934, 6.490628035480970938E-16, 5.199999999999982414 ) ) ;
#163 = CARTESIAN_POINT ( 'NONE',  ( -8.000000000000000000, 0.000000000000000000, 5.000000000000000000 ) ) ;
#164 = VERTEX_POINT ( 'NONE', #23 ) ;
#165 = CIRCLE ( 'NONE', #203, 8.000000000000000000 ) ;
#166 = AXIS2_PLACEMENT_3D ( 'NONE', #272, #130, #224 ) ;
#167 = CARTESIAN_POINT ( 'NONE',  ( 5.099999999999999645, 6.245698675651500839E-16, 320.0000000000000000 ) ) ;
#168 = PLANE ( 'NONE',  #280 ) ;
#169 = DIRECTION ( 'NONE',  ( 1.000000000000000000, 0.000000000000000000, 0.000000000000000000 ) ) ;
#170 = FACE_OUTER_BOUND ( 'NONE', #273, .T. ) ;
#171 = DIRECTION ( 'NONE',  ( 0.000000000000000000, 0.000000000000000000, 1.000000000000000000 ) ) ;
#172 = DATE_AND_TIME ( #49, #69 ) ;
#173 = CALENDAR_DATE ( 2022, 7, 7 ) ;
#174 = LOCAL_TIME ( 14, 26, 21.00000000000000000, #220 ) ;
#175 = PERSON_AND_ORGANIZATION_ROLE ( 'creator' ) ;
#176 = ORIENTED_EDGE ( 'NONE', *, *, #58, .F. ) ;
#177 = ADVANCED_FACE ( 'NONE', ( #118 ), #70, .T. ) ;
#178 = ORIENTED_EDGE ( 'NONE', *, *, #210, .T. ) ;
#179 = AXIS2_PLACEMENT_3D ( 'NONE', #24, #171, #263 ) ;
#180 = DIRECTION ( 'NONE',  ( -0.000000000000000000, -0.000000000000000000, -1.000000000000000000 ) ) ;
#181 = DIRECTION ( 'NONE',  ( -0.000000000000000000, -0.000000000000000000, -1.000000000000000000 ) ) ;
#182 = DIRECTION ( 'NONE',  ( -1.000000000000000000, 0.000000000000000000, 0.000000000000000000 ) ) ;
#183 = AXIS2_PLACEMENT_3D ( 'NONE', #21, #214, #114 ) ;
#184 = APPLICATION_CONTEXT ( 'configuration controlled 3d designs of mechanical parts and assemblies' ) ;
#185 = CIRCLE ( 'NONE', #275, 5.099999999999999645 ) ;
#186 = ORIENTED_EDGE ( 'NONE', *, *, #231, .T. ) ;
#187 = ORIENTED_EDGE ( 'NONE', *, *, #97, .T. ) ;
#188 = CARTESIAN_POINT ( 'NONE',  ( 8.000000000000000000, 9.797174393178825657E-16, 5.000000000000000000 ) ) ;
#189 = EDGE_CURVE ( 'NONE', #219, #250, #148, .T. ) ;
#190 = VECTOR ( 'NONE', #180, 1000.000000000000000 ) ;
#191 = DIRECTION ( 'NONE',  ( -0.000000000000000000, -0.000000000000000000, -1.000000000000000000 ) ) ;
#192 = CARTESIAN_POINT ( 'NONE',  ( 8.000000000000000000, 9.797174393178825657E-16, 5.000000000000000000 ) ) ;
#193 = DIRECTION ( 'NONE',  ( 1.000000000000000000, 0.000000000000000000, 0.000000000000000000 ) ) ;
#194 = EDGE_CURVE ( 'NONE', #112, #133, #12, .T. ) ;
#195 = AXIS2_PLACEMENT_3D ( 'NONE', #211, #1, #305 ) ;
#196 = DIRECTION ( 'NONE',  ( 0.000000000000000000, 0.000000000000000000, -1.000000000000000000 ) ) ;
#197 = EDGE_LOOP ( 'NONE', ( #50, #100 ) ) ;
#198 = PERSON_AND_ORGANIZATION ( #293, #18 ) ;
#199 = VERTEX_POINT ( 'NONE', #2 ) ;
#200 =( NAMED_UNIT ( * ) PLANE_ANGLE_UNIT ( ) SI_UNIT ( $, .RADIAN. ) );
#201 = PERSON_AND_ORGANIZATION ( #293, #18 ) ;
#202 = CC_DESIGN_DATE_AND_TIME_ASSIGNMENT ( #172, #46, ( #270 ) ) ;
#203 = AXIS2_PLACEMENT_3D ( 'NONE', #108, #301, #204 ) ;
#204 = DIRECTION ( 'NONE',  ( 1.000000000000000000, 0.000000000000000000, 0.000000000000000000 ) ) ;
#205 = APPROVAL_PERSON_ORGANIZATION ( #243, #140, #122 ) ;
#206 = DIRECTION ( 'NONE',  ( -0.000000000000000000, -0.000000000000000000, -1.000000000000000000 ) ) ;
#207 = DIRECTION ( 'NONE',  ( -0.000000000000000000, -0.000000000000000000, -1.000000000000000000 ) ) ;
#208 = EDGE_LOOP ( 'NONE', ( #125, #134, #274, #59 ) ) ;
#209 = ORIENTED_EDGE ( 'NONE', *, *, #189, .F. ) ;
#210 = EDGE_CURVE ( 'NONE', #228, #199, #254, .T. ) ;
#211 = CARTESIAN_POINT ( 'NONE',  ( 0.000000000000000000, 0.000000000000000000, 5.000000000000000000 ) ) ;
#212 = CARTESIAN_POINT ( 'NONE',  ( -8.000000000000000000, 0.000000000000000000, 5.000000000000000000 ) ) ;
#213 = AXIS2_PLACEMENT_3D ( 'NONE', #94, #284, #196 ) ;
#214 = DIRECTION ( 'NONE',  ( -0.000000000000000000, -0.000000000000000000, -1.000000000000000000 ) ) ;
#215 = DIRECTION ( 'NONE',  ( -0.000000000000000000, -0.000000000000000000, -1.000000000000000000 ) ) ;
#216 = DIRECTION ( 'NONE',  ( 0.000000000000000000, 0.000000000000000000, 1.000000000000000000 ) ) ;
#217 = PERSON_AND_ORGANIZATION_ROLE ( 'design_supplier' ) ;
#218 = COORDINATED_UNIVERSAL_TIME_OFFSET ( 1, 0, .AHEAD. ) ;
#219 = VERTEX_POINT ( 'NONE', #212 ) ;
#220 = COORDINATED_UNIVERSAL_TIME_OFFSET ( 1, 0, .AHEAD. ) ;
#221 = PERSON_AND_ORGANIZATION ( #293, #18 ) ;
#222 = EDGE_LOOP ( 'NONE', ( #57, #35, #186, #266 ) ) ;
#223 = AXIS2_PLACEMENT_3D ( 'NONE', #32, #206, #83 ) ;
#224 = DIRECTION ( 'NONE',  ( 1.000000000000000000, 0.000000000000000000, 0.000000000000000000 ) ) ;
#225 = CC_DESIGN_APPROVAL ( #136, ( #132 ) ) ;
#226 = EDGE_CURVE ( 'NONE', #164, #271, #56, .T. ) ;
#227 = FACE_OUTER_BOUND ( 'NONE', #208, .T. ) ;
#228 = VERTEX_POINT ( 'NONE', #22 ) ;
#229 = CYLINDRICAL_SURFACE ( 'NONE', #223, 5.099999999999999645 ) ;
#230 = APPROVAL_PERSON_ORGANIZATION ( #198, #294, #99 ) ;
#231 = EDGE_CURVE ( 'NONE', #228, #112, #150, .T. ) ;
#232 = CYLINDRICAL_SURFACE ( 'NONE', #5, 8.000000000000000000 ) ;
#233 = DIRECTION ( 'NONE',  ( -1.000000000000000000, 0.000000000000000000, 0.000000000000000000 ) ) ;
#234 = ADVANCED_BREP_SHAPE_REPRESENTATION ( 'ffee', ( #237, #303 ), #42 ) ;
#235 = CARTESIAN_POINT ( 'NONE',  ( 0.000000000000000000, 0.000000000000000000, 5.199999999999982414 ) ) ;
#236 = EDGE_CURVE ( 'NONE', #271, #164, #138, .T. ) ;
#237 = MANIFOLD_SOLID_BREP ( 'Zaoblit1', #25 ) ;
#238 = CARTESIAN_POINT ( 'NONE',  ( 0.000000000000000000, 0.000000000000000000, 5.000000000000000000 ) ) ;
#239 = PRODUCT ( 'ffee', 'ffee', '', ( #292 ) ) ;
#240 = APPLICATION_PROTOCOL_DEFINITION ( 'international standard', 'config_control_design', 1994, #117 ) ;
#241 = AXIS2_PLACEMENT_3D ( 'NONE', #162, #41, #262 ) ;
#242 = CC_DESIGN_PERSON_AND_ORGANIZATION_ASSIGNMENT ( #30, #8, ( #239 ) ) ;
#243 = PERSON_AND_ORGANIZATION ( #293, #18 ) ;
#244 = ORIENTED_EDGE ( 'NONE', *, *, #236, .T. ) ;
#245 = PERSON_AND_ORGANIZATION ( #293, #18 ) ;
#246 = DIRECTION ( 'NONE',  ( 1.000000000000000000, 0.000000000000000000, 0.000000000000000000 ) ) ;
#247 = ORIENTED_EDGE ( 'NONE', *, *, #38, .T. ) ;
#248 = CARTESIAN_POINT ( 'NONE',  ( 0.000000000000000000, 0.000000000000000000, 0.000000000000000000 ) ) ;
#249 = SHAPE_DEFINITION_REPRESENTATION ( #286, #234 ) ;
#250 = VERTEX_POINT ( 'NONE', #192 ) ;
#251 = DIRECTION ( 'NONE',  ( 0.000000000000000000, 0.000000000000000000, 1.000000000000000000 ) ) ;
#252 = EDGE_CURVE ( 'NONE', #72, #199, #19, .T. ) ;
#253 = ORIENTED_EDGE ( 'NONE', *, *, #194, .T. ) ;
#254 = CIRCLE ( 'NONE', #126, 5.099999999999999645 ) ;
#255 = VERTEX_POINT ( 'NONE', #167 ) ;
#256 = CARTESIAN_POINT ( 'NONE',  ( -5.099999999999999645, 0.000000000000000000, 320.0000000000000000 ) ) ;
#257 = CARTESIAN_POINT ( 'NONE',  ( 0.000000000000000000, 0.000000000000000000, 5.000000000000000000 ) ) ;
#258 = CIRCLE ( 'NONE', #241, 0.1999999999999996503 ) ;
#259 = CARTESIAN_POINT ( 'NONE',  ( 0.000000000000000000, 0.000000000000000000, 320.0000000000000000 ) ) ;
#260 = DIRECTION ( 'NONE',  ( -1.000000000000000000, 0.000000000000000000, 0.000000000000000000 ) ) ;
#261 = DIRECTION ( 'NONE',  ( 0.000000000000000000, 0.000000000000000000, 1.000000000000000000 ) ) ;
#262 = DIRECTION ( 'NONE',  ( -1.000000000000000000, 1.224646799147353454E-16, 0.000000000000000000 ) ) ;
#263 = DIRECTION ( 'NONE',  ( 1.000000000000000000, 0.000000000000000000, 0.000000000000000000 ) ) ;
#264 = EDGE_CURVE ( 'NONE', #255, #72, #185, .T. ) ;
#265 = APPROVAL_DATE_TIME ( #121, #294 ) ;
#266 = ORIENTED_EDGE ( 'NONE', *, *, #120, .F. ) ;
#267 =( LENGTH_UNIT ( ) NAMED_UNIT ( * ) SI_UNIT ( .MILLI., .METRE. ) );
#268 = TOROIDAL_SURFACE ( 'NONE', #137, 5.299999999999998934, 0.2000000000000000111 ) ;
#269 = DIRECTION ( 'NONE',  ( 1.000000000000000000, 0.000000000000000000, -0.000000000000000000 ) ) ;
#270 = SECURITY_CLASSIFICATION ( '', '', #7 ) ;
#271 = VERTEX_POINT ( 'NONE', #68 ) ;
#272 = CARTESIAN_POINT ( 'NONE',  ( 0.000000000000000000, 0.000000000000000000, 5.199999999999982414 ) ) ;
#273 = EDGE_LOOP ( 'NONE', ( #289, #209, #277, #244 ) ) ;
#274 = ORIENTED_EDGE ( 'NONE', *, *, #252, .T. ) ;
#275 = AXIS2_PLACEMENT_3D ( 'NONE', #259, #116, #39 ) ;
#276 = PLANE ( 'NONE',  #93 ) ;
#277 = ORIENTED_EDGE ( 'NONE', *, *, #58, .T. ) ;
#278 = CIRCLE ( 'NONE', #147, 5.099999999999999645 ) ;
#279 = DIRECTION ( 'NONE',  ( 1.000000000000000000, 0.000000000000000000, 0.000000000000000000 ) ) ;
#280 = AXIS2_PLACEMENT_3D ( 'NONE', #40, #141, #269 ) ;
#281 = FACE_OUTER_BOUND ( 'NONE', #151, .T. ) ;
#282 = ADVANCED_FACE ( 'NONE', ( #170 ), #232, .T. ) ;
#283 = FACE_OUTER_BOUND ( 'NONE', #222, .T. ) ;
#284 = DIRECTION ( 'NONE',  ( 0.000000000000000000, -1.000000000000000000, 0.000000000000000000 ) ) ;
#285 = AXIS2_PLACEMENT_3D ( 'NONE', #45, #3, #279 ) ;
#286 = PRODUCT_DEFINITION_SHAPE ( 'NONE', 'NONE',  #65 ) ;
#287 = CARTESIAN_POINT ( 'NONE',  ( -5.299999999999998934, 6.490628035480970938E-16, 4.999999999999991118 ) ) ;
#288 = PERSON_AND_ORGANIZATION_ROLE ( 'classification_officer' ) ;
#289 = ORIENTED_EDGE ( 'NONE', *, *, #153, .F. ) ;
#290 = APPLICATION_PROTOCOL_DEFINITION ( 'international standard', 'config_control_design', 1994, #184 ) ;
#291 = CC_DESIGN_APPROVAL ( #140, ( #270 ) ) ;
#292 = MECHANICAL_CONTEXT ( 'NONE', #117, 'mechanical' ) ;
#293 = PERSON ( 'NEURÈENÝ', 'NEURÈENÝ', 'NEURÈENÝ', ('NEURÈENÝ'), ('NEURÈENÝ'), ('NEURÈENÝ') ) ;
#294 = APPROVAL ( #105, 'NEURÈENÝ' ) ;
#295 = APPROVAL_DATE_TIME ( #127, #136 ) ;
#296 = ORIENTED_EDGE ( 'NONE', *, *, #38, .F. ) ;
#297 = CC_DESIGN_SECURITY_CLASSIFICATION ( #270, ( #132 ) ) ;
#298 = ADVANCED_FACE ( 'NONE', ( #67 ), #168, .F. ) ;
#299 = LINE ( 'NONE', #163, #190 ) ;
#300 = FACE_BOUND ( 'NONE', #28, .T. ) ;
#301 = DIRECTION ( 'NONE',  ( 0.000000000000000000, 0.000000000000000000, 1.000000000000000000 ) ) ;
#302 = FACE_OUTER_BOUND ( 'NONE', #34, .T. ) ;
#303 = AXIS2_PLACEMENT_3D ( 'NONE', #248, #78, #246 ) ;
#304 = ORIENTED_EDGE ( 'NONE', *, *, #231, .F. ) ;
#305 = DIRECTION ( 'NONE',  ( 1.000000000000000000, 0.000000000000000000, 0.000000000000000000 ) ) ;
#306 = CARTESIAN_POINT ( 'NONE',  ( 0.000000000000000000, 0.000000000000000000, 5.000000000000000000 ) ) ;
#307 = CC_DESIGN_PERSON_AND_ORGANIZATION_ASSIGNMENT ( #221, #9, ( #132 ) ) ;
ENDSEC;
END-ISO-10303-21;
