ISO-10303-21;
HEADER;
FILE_DESCRIPTION (( 'STEP AP203' ),
    '1' );
FILE_NAME ('f5b9.STEP',
    '2023-02-12T11:22:25',
    ( '' ),
    ( '' ),
    'SwSTEP 2.0',
    'SolidWorks 2019',
    '' );
FILE_SCHEMA (( 'CONFIG_CONTROL_DESIGN' ));
ENDSEC;

DATA;
#1 = CIRCLE ( 'NONE', #143, 6.000000000000000888 ) ;
#2 = PERSON_AND_ORGANIZATION_ROLE ( 'design_supplier' ) ;
#3 =( NAMED_UNIT ( * ) PLANE_ANGLE_UNIT ( ) SI_UNIT ( $, .RADIAN. ) );
#4 = EDGE_CURVE ( 'NONE', #18, #219, #166, .T. ) ;
#5 = ORIENTED_EDGE ( 'NONE', *, *, #189, .T. ) ;
#6 = CARTESIAN_POINT ( 'NONE',  ( 0.000000000000000000, 0.000000000000000000, 100.0000000000000000 ) ) ;
#7 = CALENDAR_DATE ( 2023, 12, 2 ) ;
#8 = DIRECTION ( 'NONE',  ( 1.000000000000000000, 0.000000000000000000, -0.000000000000000000 ) ) ;
#9 = MANIFOLD_SOLID_BREP ( 'Pøidat vysunutím3', #230 ) ;
#10 = AXIS2_PLACEMENT_3D ( 'NONE', #54, #134, #130 ) ;
#11 = CARTESIAN_POINT ( 'NONE',  ( 0.000000000000000000, 0.000000000000000000, 100.0000000000000000 ) ) ;
#12 = AXIS2_PLACEMENT_3D ( 'NONE', #218, #138, #58 ) ;
#13 = ADVANCED_FACE ( 'NONE', ( #227 ), #105, .T. ) ;
#14 = DIRECTION ( 'NONE',  ( -0.000000000000000000, -0.000000000000000000, -1.000000000000000000 ) ) ;
#15 = VERTEX_POINT ( 'NONE', #85 ) ;
#16 = DIRECTION ( 'NONE',  ( 0.000000000000000000, 0.000000000000000000, 1.000000000000000000 ) ) ;
#17 = EDGE_LOOP ( 'NONE', ( #98, #185, #137, #157 ) ) ;
#18 = VERTEX_POINT ( 'NONE', #44 ) ;
#19 = APPROVAL_DATE_TIME ( #243, #28 ) ;
#20 = CARTESIAN_POINT ( 'NONE',  ( 3.750000000000000000, 4.592425496802573972E-16, 100.0000000000000000 ) ) ;
#21 = EDGE_CURVE ( 'NONE', #24, #18, #167, .T. ) ;
#22 = AXIS2_PLACEMENT_3D ( 'NONE', #248, #32, #127 ) ;
#23 = CIRCLE ( 'NONE', #247, 6.000000000000000888 ) ;
#24 = VERTEX_POINT ( 'NONE', #20 ) ;
#25 = PERSON ( 'NEURÈENÝ', 'NEURÈENÝ', 'NEURÈENÝ', ('NEURÈENÝ'), ('NEURÈENÝ'), ('NEURÈENÝ') ) ;
#26 =( GEOMETRIC_REPRESENTATION_CONTEXT ( 3 ) GLOBAL_UNCERTAINTY_ASSIGNED_CONTEXT ( ( #29 ) ) GLOBAL_UNIT_ASSIGNED_CONTEXT ( ( #122, #3, #83 ) ) REPRESENTATION_CONTEXT ( 'NONE', 'WORKASPACE' ) );
#27 = APPROVAL_STATUS ( 'not_yet_approved' ) ;
#28 = APPROVAL ( #100, 'NEURÈENÝ' ) ;
#29 = UNCERTAINTY_MEASURE_WITH_UNIT (LENGTH_MEASURE( 1.000000000000000082E-05 ), #122, 'distance_accuracy_value', 'NONE');
#30 = ADVANCED_BREP_SHAPE_REPRESENTATION ( 'f5b9', ( #9, #12 ), #26 ) ;
#31 = CYLINDRICAL_SURFACE ( 'NONE', #186, 6.000000000000000888 ) ;
#32 = DIRECTION ( 'NONE',  ( -0.000000000000000000, -0.000000000000000000, -1.000000000000000000 ) ) ;
#33 = VECTOR ( 'NONE', #152, 1000.000000000000000 ) ;
#34 = CC_DESIGN_APPROVAL ( #102, ( #210 ) ) ;
#35 = VERTEX_POINT ( 'NONE', #187 ) ;
#36 = LINE ( 'NONE', #94, #150 ) ;
#37 = ORIENTED_EDGE ( 'NONE', *, *, #201, .T. ) ;
#38 = CARTESIAN_POINT ( 'NONE',  ( 0.000000000000000000, 0.000000000000000000, 0.000000000000000000 ) ) ;
#39 = EDGE_LOOP ( 'NONE', ( #205, #95, #199, #253 ) ) ;
#40 = ADVANCED_FACE ( 'NONE', ( #146, #226 ), #70, .T. ) ;
#41 = PERSON_AND_ORGANIZATION ( #25, #129 ) ;
#42 = APPLICATION_CONTEXT ( 'configuration controlled 3d designs of mechanical parts and assemblies' ) ;
#43 = EDGE_LOOP ( 'NONE', ( #207, #181 ) ) ;
#44 = CARTESIAN_POINT ( 'NONE',  ( 3.750000000000000000, 4.592425496802573972E-16, 5.000000000000000000 ) ) ;
#45 = APPROVAL ( #163, 'NEURÈENÝ' ) ;
#46 = DATE_TIME_ROLE ( 'classification_date' ) ;
#47 = VECTOR ( 'NONE', #133, 1000.000000000000000 ) ;
#48 = CARTESIAN_POINT ( 'NONE',  ( 0.000000000000000000, 0.000000000000000000, 0.000000000000000000 ) ) ;
#49 = EDGE_CURVE ( 'NONE', #245, #125, #229, .T. ) ;
#50 = CARTESIAN_POINT ( 'NONE',  ( 3.750000000000000000, 4.592425496802573972E-16, 100.0000000000000000 ) ) ;
#51 = DIRECTION ( 'NONE',  ( 1.000000000000000000, 0.000000000000000000, -0.000000000000000000 ) ) ;
#52 = APPROVAL_PERSON_ORGANIZATION ( #86, #102, #208 ) ;
#53 = ADVANCED_FACE ( 'NONE', ( #126 ), #73, .F. ) ;
#54 = CARTESIAN_POINT ( 'NONE',  ( 0.000000000000000000, 0.000000000000000000, 100.0000000000000000 ) ) ;
#55 = LINE ( 'NONE', #231, #47 ) ;
#56 = AXIS2_PLACEMENT_3D ( 'NONE', #11, #194, #151 ) ;
#57 = FACE_OUTER_BOUND ( 'NONE', #17, .T. ) ;
#58 = DIRECTION ( 'NONE',  ( 1.000000000000000000, 0.000000000000000000, 0.000000000000000000 ) ) ;
#59 = COORDINATED_UNIVERSAL_TIME_OFFSET ( 1, 0, .AHEAD. ) ;
#60 = ORIENTED_EDGE ( 'NONE', *, *, #90, .T. ) ;
#61 = CC_DESIGN_APPROVAL ( #28, ( #235 ) ) ;
#62 = DIRECTION ( 'NONE',  ( -0.000000000000000000, -0.000000000000000000, -1.000000000000000000 ) ) ;
#63 = DATE_AND_TIME ( #121, #174 ) ;
#64 = DIRECTION ( 'NONE',  ( 1.000000000000000000, 0.000000000000000000, 0.000000000000000000 ) ) ;
#65 = PERSON_AND_ORGANIZATION ( #25, #129 ) ;
#66 = AXIS2_PLACEMENT_3D ( 'NONE', #88, #92, #76 ) ;
#67 = EDGE_LOOP ( 'NONE', ( #60, #255 ) ) ;
#68 = CC_DESIGN_PERSON_AND_ORGANIZATION_ASSIGNMENT ( #124, #200, ( #93 ) ) ;
#69 = SHAPE_DEFINITION_REPRESENTATION ( #164, #30 ) ;
#70 = PLANE ( 'NONE',  #240 ) ;
#71 = CYLINDRICAL_SURFACE ( 'NONE', #96, 6.000000000000000888 ) ;
#72 = CC_DESIGN_SECURITY_CLASSIFICATION ( #210, ( #235 ) ) ;
#73 = PLANE ( 'NONE',  #111 ) ;
#74 = DIRECTION ( 'NONE',  ( 1.000000000000000000, 0.000000000000000000, 0.000000000000000000 ) ) ;
#75 = DIRECTION ( 'NONE',  ( 1.000000000000000000, 0.000000000000000000, -0.000000000000000000 ) ) ;
#76 = DIRECTION ( 'NONE',  ( 1.000000000000000000, 0.000000000000000000, 0.000000000000000000 ) ) ;
#77 = CC_DESIGN_PERSON_AND_ORGANIZATION_ASSIGNMENT ( #79, #156, ( #145 ) ) ;
#78 = CC_DESIGN_APPROVAL ( #45, ( #93 ) ) ;
#79 = PERSON_AND_ORGANIZATION ( #25, #129 ) ;
#80 = COORDINATED_UNIVERSAL_TIME_OFFSET ( 1, 0, .AHEAD. ) ;
#81 = COORDINATED_UNIVERSAL_TIME_OFFSET ( 1, 0, .AHEAD. ) ;
#82 = CARTESIAN_POINT ( 'NONE',  ( 0.000000000000000000, 0.000000000000000000, 5.000000000000000000 ) ) ;
#83 =( NAMED_UNIT ( * ) SI_UNIT ( $, .STERADIAN. ) SOLID_ANGLE_UNIT ( ) );
#84 = DIRECTION ( 'NONE',  ( 0.000000000000000000, 0.000000000000000000, 1.000000000000000000 ) ) ;
#85 = CARTESIAN_POINT ( 'NONE',  ( 6.000000000000000888, 7.347880794884120722E-16, 5.000000000000000000 ) ) ;
#86 = PERSON_AND_ORGANIZATION ( #25, #129 ) ;
#87 = CARTESIAN_POINT ( 'NONE',  ( 0.000000000000000000, 0.000000000000000000, 5.000000000000000000 ) ) ;
#88 = CARTESIAN_POINT ( 'NONE',  ( 0.000000000000000000, 0.000000000000000000, 0.000000000000000000 ) ) ;
#89 = AXIS2_PLACEMENT_3D ( 'NONE', #250, #109, #75 ) ;
#90 = EDGE_CURVE ( 'NONE', #35, #15, #1, .T. ) ;
#91 = LOCAL_TIME ( 12, 22, 25.00000000000000000, #104 ) ;
#92 = DIRECTION ( 'NONE',  ( 0.000000000000000000, 0.000000000000000000, 1.000000000000000000 ) ) ;
#93 = PRODUCT_DEFINITION ( 'NEZNÁMÝ', '', #235, #190 ) ;
#94 = CARTESIAN_POINT ( 'NONE',  ( -3.750000000000000000, 0.000000000000000000, 100.0000000000000000 ) ) ;
#95 = ORIENTED_EDGE ( 'NONE', *, *, #114, .T. ) ;
#96 = AXIS2_PLACEMENT_3D ( 'NONE', #196, #246, #211 ) ;
#97 = ORIENTED_EDGE ( 'NONE', *, *, #191, .T. ) ;
#98 = ORIENTED_EDGE ( 'NONE', *, *, #21, .F. ) ;
#99 = CC_DESIGN_PERSON_AND_ORGANIZATION_ASSIGNMENT ( #139, #2, ( #235 ) ) ;
#100 = APPROVAL_STATUS ( 'not_yet_approved' ) ;
#101 = DATE_AND_TIME ( #158, #198 ) ;
#102 = APPROVAL ( #27, 'NEURÈENÝ' ) ;
#103 = ORIENTED_EDGE ( 'NONE', *, *, #249, .F. ) ;
#104 = COORDINATED_UNIVERSAL_TIME_OFFSET ( 1, 0, .AHEAD. ) ;
#105 = CYLINDRICAL_SURFACE ( 'NONE', #217, 3.750000000000000000 ) ;
#106 = DIRECTION ( 'NONE',  ( 0.000000000000000000, 0.000000000000000000, 1.000000000000000000 ) ) ;
#107 = DATE_AND_TIME ( #7, #91 ) ;
#108 = CIRCLE ( 'NONE', #66, 6.000000000000000888 ) ;
#109 = DIRECTION ( 'NONE',  ( 0.000000000000000000, 0.000000000000000000, 1.000000000000000000 ) ) ;
#110 = CARTESIAN_POINT ( 'NONE',  ( 0.000000000000000000, 0.000000000000000000, 5.000000000000000000 ) ) ;
#111 = AXIS2_PLACEMENT_3D ( 'NONE', #38, #131, #51 ) ;
#112 = AXIS2_PLACEMENT_3D ( 'NONE', #237, #223, #178 ) ;
#113 = EDGE_LOOP ( 'NONE', ( #239, #140, #97, #37 ) ) ;
#114 = EDGE_CURVE ( 'NONE', #15, #245, #115, .T. ) ;
#115 = LINE ( 'NONE', #215, #33 ) ;
#116 = ORIENTED_EDGE ( 'NONE', *, *, #228, .F. ) ;
#117 = FACE_OUTER_BOUND ( 'NONE', #132, .T. ) ;
#118 = CALENDAR_DATE ( 2023, 12, 2 ) ;
#119 = ORIENTED_EDGE ( 'NONE', *, *, #4, .T. ) ;
#120 = VERTEX_POINT ( 'NONE', #251 ) ;
#121 = CALENDAR_DATE ( 2023, 12, 2 ) ;
#122 =( LENGTH_UNIT ( ) NAMED_UNIT ( * ) SI_UNIT ( .MILLI., .METRE. ) );
#123 = AXIS2_PLACEMENT_3D ( 'NONE', #48, #242, #64 ) ;
#124 = PERSON_AND_ORGANIZATION ( #25, #129 ) ;
#125 = VERTEX_POINT ( 'NONE', #173 ) ;
#126 = FACE_OUTER_BOUND ( 'NONE', #43, .T. ) ;
#127 = DIRECTION ( 'NONE',  ( -1.000000000000000000, 0.000000000000000000, 0.000000000000000000 ) ) ;
#128 = ADVANCED_FACE ( 'NONE', ( #57 ), #188, .T. ) ;
#129 = ORGANIZATION ( 'NEURÈENÝ', 'NEURÈENÝ', '' ) ;
#130 = DIRECTION ( 'NONE',  ( 1.000000000000000000, 0.000000000000000000, 0.000000000000000000 ) ) ;
#131 = DIRECTION ( 'NONE',  ( 0.000000000000000000, 0.000000000000000000, 1.000000000000000000 ) ) ;
#132 = EDGE_LOOP ( 'NONE', ( #5, #209 ) ) ;
#133 = DIRECTION ( 'NONE',  ( -0.000000000000000000, -0.000000000000000000, -1.000000000000000000 ) ) ;
#134 = DIRECTION ( 'NONE',  ( 0.000000000000000000, 0.000000000000000000, 1.000000000000000000 ) ) ;
#135 = APPROVAL_ROLE ( '' ) ;
#136 = PERSON_AND_ORGANIZATION ( #25, #129 ) ;
#137 = ORIENTED_EDGE ( 'NONE', *, *, #228, .T. ) ;
#138 = DIRECTION ( 'NONE',  ( 0.000000000000000000, 0.000000000000000000, 1.000000000000000000 ) ) ;
#139 = PERSON_AND_ORGANIZATION ( #25, #129 ) ;
#140 = ORIENTED_EDGE ( 'NONE', *, *, #90, .F. ) ;
#141 = CC_DESIGN_PERSON_AND_ORGANIZATION_ASSIGNMENT ( #65, #142, ( #210 ) ) ;
#142 = PERSON_AND_ORGANIZATION_ROLE ( 'classification_officer' ) ;
#143 = AXIS2_PLACEMENT_3D ( 'NONE', #192, #106, #74 ) ;
#144 = DIRECTION ( 'NONE',  ( -1.000000000000000000, 0.000000000000000000, 0.000000000000000000 ) ) ;
#145 = PRODUCT ( 'f5b9', 'f5b9', '', ( #177 ) ) ;
#146 = FACE_BOUND ( 'NONE', #221, .T. ) ;
#147 = EDGE_CURVE ( 'NONE', #24, #120, #170, .T. ) ;
#148 = ORIENTED_EDGE ( 'NONE', *, *, #4, .F. ) ;
#149 = VECTOR ( 'NONE', #62, 1000.000000000000000 ) ;
#150 = VECTOR ( 'NONE', #176, 1000.000000000000000 ) ;
#151 = DIRECTION ( 'NONE',  ( 1.000000000000000000, 0.000000000000000000, 0.000000000000000000 ) ) ;
#152 = DIRECTION ( 'NONE',  ( -0.000000000000000000, -0.000000000000000000, -1.000000000000000000 ) ) ;
#153 = APPLICATION_CONTEXT ( 'configuration controlled 3d designs of mechanical parts and assemblies' ) ;
#154 = CARTESIAN_POINT ( 'NONE',  ( -3.750000000000000000, 0.000000000000000000, 5.000000000000000000 ) ) ;
#155 = APPROVAL_ROLE ( '' ) ;
#156 = PERSON_AND_ORGANIZATION_ROLE ( 'design_owner' ) ;
#157 = ORIENTED_EDGE ( 'NONE', *, *, #249, .T. ) ;
#158 = CALENDAR_DATE ( 2023, 12, 2 ) ;
#159 = LOCAL_TIME ( 12, 22, 25.00000000000000000, #81 ) ;
#160 = APPLICATION_PROTOCOL_DEFINITION ( 'international standard', 'config_control_design', 1994, #42 ) ;
#161 = PRODUCT_RELATED_PRODUCT_CATEGORY ( 'detail', '', ( #145 ) ) ;
#162 = DIRECTION ( 'NONE',  ( 0.000000000000000000, 0.000000000000000000, 1.000000000000000000 ) ) ;
#163 = APPROVAL_STATUS ( 'not_yet_approved' ) ;
#164 = PRODUCT_DEFINITION_SHAPE ( 'NONE', 'NONE',  #93 ) ;
#165 = DIRECTION ( 'NONE',  ( -0.000000000000000000, -0.000000000000000000, -1.000000000000000000 ) ) ;
#166 = CIRCLE ( 'NONE', #234, 3.750000000000000000 ) ;
#167 = LINE ( 'NONE', #50, #149 ) ;
#168 = APPROVAL_PERSON_ORGANIZATION ( #41, #45, #155 ) ;
#169 = CARTESIAN_POINT ( 'NONE',  ( 0.000000000000000000, 0.000000000000000000, 5.000000000000000000 ) ) ;
#170 = CIRCLE ( 'NONE', #56, 3.750000000000000000 ) ;
#171 = LOCAL_TIME ( 12, 22, 25.00000000000000000, #80 ) ;
#172 = APPROVAL_DATE_TIME ( #107, #102 ) ;
#173 = CARTESIAN_POINT ( 'NONE',  ( -6.000000000000000888, 0.000000000000000000, 0.000000000000000000 ) ) ;
#174 = LOCAL_TIME ( 12, 22, 25.00000000000000000, #220 ) ;
#175 = PLANE ( 'NONE',  #89 ) ;
#176 = DIRECTION ( 'NONE',  ( -0.000000000000000000, -0.000000000000000000, -1.000000000000000000 ) ) ;
#177 = MECHANICAL_CONTEXT ( 'NONE', #42, 'mechanical' ) ;
#178 = DIRECTION ( 'NONE',  ( 1.000000000000000000, 0.000000000000000000, 0.000000000000000000 ) ) ;
#179 = CC_DESIGN_PERSON_AND_ORGANIZATION_ASSIGNMENT ( #180, #254, ( #235 ) ) ;
#180 = PERSON_AND_ORGANIZATION ( #25, #129 ) ;
#181 = ORIENTED_EDGE ( 'NONE', *, *, #49, .F. ) ;
#182 = CARTESIAN_POINT ( 'NONE',  ( 6.000000000000000888, 7.347880794884120722E-16, 0.000000000000000000 ) ) ;
#183 = ORIENTED_EDGE ( 'NONE', *, *, #147, .F. ) ;
#184 = DIRECTION ( 'NONE',  ( 1.000000000000000000, 0.000000000000000000, 0.000000000000000000 ) ) ;
#185 = ORIENTED_EDGE ( 'NONE', *, *, #189, .F. ) ;
#186 = AXIS2_PLACEMENT_3D ( 'NONE', #110, #14, #216 ) ;
#187 = CARTESIAN_POINT ( 'NONE',  ( -6.000000000000000888, 0.000000000000000000, 5.000000000000000000 ) ) ;
#188 = CYLINDRICAL_SURFACE ( 'NONE', #22, 3.750000000000000000 ) ;
#189 = EDGE_CURVE ( 'NONE', #120, #24, #203, .T. ) ;
#190 = DESIGN_CONTEXT ( 'detailed design', #153, 'design' ) ;
#191 = EDGE_CURVE ( 'NONE', #35, #125, #55, .T. ) ;
#192 = CARTESIAN_POINT ( 'NONE',  ( 0.000000000000000000, 0.000000000000000000, 5.000000000000000000 ) ) ;
#193 = EDGE_LOOP ( 'NONE', ( #183, #197, #119, #116 ) ) ;
#194 = DIRECTION ( 'NONE',  ( 0.000000000000000000, 0.000000000000000000, 1.000000000000000000 ) ) ;
#195 = ADVANCED_FACE ( 'NONE', ( #213 ), #31, .T. ) ;
#196 = CARTESIAN_POINT ( 'NONE',  ( 0.000000000000000000, 0.000000000000000000, 5.000000000000000000 ) ) ;
#197 = ORIENTED_EDGE ( 'NONE', *, *, #21, .T. ) ;
#198 = LOCAL_TIME ( 12, 22, 25.00000000000000000, #59 ) ;
#199 = ORIENTED_EDGE ( 'NONE', *, *, #49, .T. ) ;
#200 = PERSON_AND_ORGANIZATION_ROLE ( 'creator' ) ;
#201 = EDGE_CURVE ( 'NONE', #125, #245, #108, .T. ) ;
#202 = DATE_TIME_ROLE ( 'creation_date' ) ;
#203 = CIRCLE ( 'NONE', #10, 3.750000000000000000 ) ;
#204 = SECURITY_CLASSIFICATION_LEVEL ( 'unclassified' ) ;
#205 = ORIENTED_EDGE ( 'NONE', *, *, #225, .F. ) ;
#206 = ADVANCED_FACE ( 'NONE', ( #117 ), #175, .T. ) ;
#207 = ORIENTED_EDGE ( 'NONE', *, *, #201, .F. ) ;
#208 = APPROVAL_ROLE ( '' ) ;
#209 = ORIENTED_EDGE ( 'NONE', *, *, #147, .T. ) ;
#210 = SECURITY_CLASSIFICATION ( '', '', #204 ) ;
#211 = DIRECTION ( 'NONE',  ( -1.000000000000000000, 0.000000000000000000, 0.000000000000000000 ) ) ;
#212 = CC_DESIGN_DATE_AND_TIME_ASSIGNMENT ( #222, #46, ( #210 ) ) ;
#213 = FACE_OUTER_BOUND ( 'NONE', #39, .T. ) ;
#214 = CC_DESIGN_DATE_AND_TIME_ASSIGNMENT ( #101, #202, ( #93 ) ) ;
#215 = CARTESIAN_POINT ( 'NONE',  ( 6.000000000000000888, 7.347880794884120722E-16, 5.000000000000000000 ) ) ;
#216 = DIRECTION ( 'NONE',  ( -1.000000000000000000, 0.000000000000000000, 0.000000000000000000 ) ) ;
#217 = AXIS2_PLACEMENT_3D ( 'NONE', #6, #165, #144 ) ;
#218 = CARTESIAN_POINT ( 'NONE',  ( 0.000000000000000000, 0.000000000000000000, 0.000000000000000000 ) ) ;
#219 = VERTEX_POINT ( 'NONE', #154 ) ;
#220 = COORDINATED_UNIVERSAL_TIME_OFFSET ( 1, 0, .AHEAD. ) ;
#221 = EDGE_LOOP ( 'NONE', ( #103, #148 ) ) ;
#222 = DATE_AND_TIME ( #241, #159 ) ;
#223 = DIRECTION ( 'NONE',  ( 0.000000000000000000, 0.000000000000000000, 1.000000000000000000 ) ) ;
#224 = APPROVAL_PERSON_ORGANIZATION ( #136, #28, #135 ) ;
#225 = EDGE_CURVE ( 'NONE', #15, #35, #23, .T. ) ;
#226 = FACE_OUTER_BOUND ( 'NONE', #67, .T. ) ;
#227 = FACE_OUTER_BOUND ( 'NONE', #193, .T. ) ;
#228 = EDGE_CURVE ( 'NONE', #120, #219, #36, .T. ) ;
#229 = CIRCLE ( 'NONE', #123, 6.000000000000000888 ) ;
#230 = CLOSED_SHELL ( 'NONE', ( #13, #195, #233, #40, #53, #128, #206 ) ) ;
#231 = CARTESIAN_POINT ( 'NONE',  ( -6.000000000000000888, 0.000000000000000000, 5.000000000000000000 ) ) ;
#232 = DIRECTION ( 'NONE',  ( 1.000000000000000000, 0.000000000000000000, 0.000000000000000000 ) ) ;
#233 = ADVANCED_FACE ( 'NONE', ( #236 ), #71, .T. ) ;
#234 = AXIS2_PLACEMENT_3D ( 'NONE', #87, #84, #184 ) ;
#235 = PRODUCT_DEFINITION_FORMATION_WITH_SPECIFIED_SOURCE ( 'LIBOVOLNÝ', '', #145, .NOT_KNOWN. ) ;
#236 = FACE_OUTER_BOUND ( 'NONE', #113, .T. ) ;
#237 = CARTESIAN_POINT ( 'NONE',  ( 0.000000000000000000, 0.000000000000000000, 5.000000000000000000 ) ) ;
#238 = APPROVAL_DATE_TIME ( #63, #45 ) ;
#239 = ORIENTED_EDGE ( 'NONE', *, *, #114, .F. ) ;
#240 = AXIS2_PLACEMENT_3D ( 'NONE', #82, #162, #8 ) ;
#241 = CALENDAR_DATE ( 2023, 12, 2 ) ;
#242 = DIRECTION ( 'NONE',  ( 0.000000000000000000, 0.000000000000000000, 1.000000000000000000 ) ) ;
#243 = DATE_AND_TIME ( #118, #171 ) ;
#244 = CIRCLE ( 'NONE', #112, 3.750000000000000000 ) ;
#245 = VERTEX_POINT ( 'NONE', #182 ) ;
#246 = DIRECTION ( 'NONE',  ( -0.000000000000000000, -0.000000000000000000, -1.000000000000000000 ) ) ;
#247 = AXIS2_PLACEMENT_3D ( 'NONE', #169, #16, #232 ) ;
#248 = CARTESIAN_POINT ( 'NONE',  ( 0.000000000000000000, 0.000000000000000000, 100.0000000000000000 ) ) ;
#249 = EDGE_CURVE ( 'NONE', #219, #18, #244, .T. ) ;
#250 = CARTESIAN_POINT ( 'NONE',  ( 0.000000000000000000, 0.000000000000000000, 100.0000000000000000 ) ) ;
#251 = CARTESIAN_POINT ( 'NONE',  ( -3.750000000000000000, 0.000000000000000000, 100.0000000000000000 ) ) ;
#252 = APPLICATION_PROTOCOL_DEFINITION ( 'international standard', 'config_control_design', 1994, #153 ) ;
#253 = ORIENTED_EDGE ( 'NONE', *, *, #191, .F. ) ;
#254 = PERSON_AND_ORGANIZATION_ROLE ( 'creator' ) ;
#255 = ORIENTED_EDGE ( 'NONE', *, *, #225, .T. ) ;
ENDSEC;
END-ISO-10303-21;
