ISO-10303-21;
HEADER;
FILE_DESCRIPTION (( 'STEP AP203' ),
    '1' );
FILE_NAME ('e3c7.STEP',
    '2022-07-07T12:55:18',
    ( '' ),
    ( '' ),
    'SwSTEP 2.0',
    'SolidWorks 2019',
    '' );
FILE_SCHEMA (( 'CONFIG_CONTROL_DESIGN' ));
ENDSEC;

DATA;
#1 = ADVANCED_FACE ( 'NONE', ( #203 ), #77, .F. ) ;
#2 = EDGE_LOOP ( 'NONE', ( #162, #93, #137, #184 ) ) ;
#3 = DIRECTION ( 'NONE',  ( 0.000000000000000000, 0.000000000000000000, -1.000000000000000000 ) ) ;
#4 = ORIENTED_EDGE ( 'NONE', *, *, #7, .T. ) ;
#5 = CYLINDRICAL_SURFACE ( 'NONE', #202, 1.500000000000000222 ) ;
#6 = EDGE_CURVE ( 'NONE', #158, #69, #251, .T. ) ;
#7 = EDGE_CURVE ( 'NONE', #256, #183, #304, .T. ) ;
#8 = CARTESIAN_POINT ( 'NONE',  ( 0.000000000000000000, 0.000000000000000000, 3.000000000000000000 ) ) ;
#9 = AXIS2_PLACEMENT_3D ( 'NONE', #109, #239, #268 ) ;
#10 = COORDINATED_UNIVERSAL_TIME_OFFSET ( 1, 0, .AHEAD. ) ;
#11 = LINE ( 'NONE', #274, #259 ) ;
#12 = APPROVAL_STATUS ( 'not_yet_approved' ) ;
#13 =( NAMED_UNIT ( * ) PLANE_ANGLE_UNIT ( ) SI_UNIT ( $, .RADIAN. ) );
#14 = DIRECTION ( 'NONE',  ( 1.000000000000000000, 0.000000000000000000, 0.000000000000000000 ) ) ;
#15 = PERSON_AND_ORGANIZATION_ROLE ( 'design_owner' ) ;
#16 = FACE_BOUND ( 'NONE', #70, .T. ) ;
#17 = PERSON_AND_ORGANIZATION ( #35, #160 ) ;
#18 = AXIS2_PLACEMENT_3D ( 'NONE', #100, #60, #293 ) ;
#19 = CARTESIAN_POINT ( 'NONE',  ( 0.000000000000000000, 0.000000000000000000, 163.0000000000000000 ) ) ;
#20 = COORDINATED_UNIVERSAL_TIME_OFFSET ( 1, 0, .AHEAD. ) ;
#21 = ORIENTED_EDGE ( 'NONE', *, *, #214, .T. ) ;
#22 = TOROIDAL_SURFACE ( 'NONE', #85, 1.700000000000000400, 0.2000000000000000111 ) ;
#23 = LOCAL_TIME ( 14, 55, 18.00000000000000000, #20 ) ;
#24 = ORIENTED_EDGE ( 'NONE', *, *, #280, .T. ) ;
#25 = ORIENTED_EDGE ( 'NONE', *, *, #289, .F. ) ;
#26 = CYLINDRICAL_SURFACE ( 'NONE', #189, 3.000000000000000444 ) ;
#27 = ORIENTED_EDGE ( 'NONE', *, *, #168, .T. ) ;
#28 = CARTESIAN_POINT ( 'NONE',  ( 1.700000000000000400, 0.000000000000000000, 3.200000000000008171 ) ) ;
#29 = AXIS2_PLACEMENT_3D ( 'NONE', #170, #266, #34 ) ;
#30 = ADVANCED_FACE ( 'NONE', ( #275 ), #65, .T. ) ;
#31 = APPLICATION_CONTEXT ( 'configuration controlled 3d designs of mechanical parts and assemblies' ) ;
#32 = AXIS2_PLACEMENT_3D ( 'NONE', #222, #154, #245 ) ;
#33 = MANIFOLD_SOLID_BREP ( 'Zaoblit1', #84 ) ;
#34 = DIRECTION ( 'NONE',  ( -1.000000000000000000, 0.000000000000000000, 0.000000000000000000 ) ) ;
#35 = PERSON ( 'NEURÈENÝ', 'NEURÈENÝ', 'NEURÈENÝ', ('NEURÈENÝ'), ('NEURÈENÝ'), ('NEURÈENÝ') ) ;
#36 = PERSON_AND_ORGANIZATION ( #35, #160 ) ;
#37 = LINE ( 'NONE', #128, #212 ) ;
#38 = EDGE_CURVE ( 'NONE', #256, #166, #291, .T. ) ;
#39 = PERSON_AND_ORGANIZATION ( #35, #160 ) ;
#40 = CARTESIAN_POINT ( 'NONE',  ( 0.000000000000000000, 0.000000000000000000, 163.0000000000000000 ) ) ;
#41 = CARTESIAN_POINT ( 'NONE',  ( 0.000000000000000000, 0.000000000000000000, 163.0000000000000000 ) ) ;
#42 = CARTESIAN_POINT ( 'NONE',  ( 0.000000000000000000, 0.000000000000000000, 3.000000000000000000 ) ) ;
#43 = PERSON_AND_ORGANIZATION ( #35, #160 ) ;
#44 = DIRECTION ( 'NONE',  ( 0.000000000000000000, 0.000000000000000000, 1.000000000000000000 ) ) ;
#45 = ORIENTED_EDGE ( 'NONE', *, *, #197, .F. ) ;
#46 = CC_DESIGN_DATE_AND_TIME_ASSIGNMENT ( #195, #299, ( #68 ) ) ;
#47 = DESIGN_CONTEXT ( 'detailed design', #31, 'design' ) ;
#48 = ORIENTED_EDGE ( 'NONE', *, *, #223, .T. ) ;
#49 = VERTEX_POINT ( 'NONE', #246 ) ;
#50 = AXIS2_PLACEMENT_3D ( 'NONE', #151, #58, #131 ) ;
#51 = FACE_OUTER_BOUND ( 'NONE', #143, .T. ) ;
#52 = EDGE_LOOP ( 'NONE', ( #94, #283, #302, #207 ) ) ;
#53 = DIRECTION ( 'NONE',  ( 0.000000000000000000, 0.000000000000000000, 1.000000000000000000 ) ) ;
#54 = EDGE_CURVE ( 'NONE', #307, #71, #192, .T. ) ;
#55 = APPROVAL_PERSON_ORGANIZATION ( #39, #140, #87 ) ;
#56 = EDGE_CURVE ( 'NONE', #255, #307, #235, .T. ) ;
#57 = DIRECTION ( 'NONE',  ( -0.000000000000000000, -0.000000000000000000, -1.000000000000000000 ) ) ;
#58 = DIRECTION ( 'NONE',  ( 0.000000000000000000, 0.000000000000000000, 1.000000000000000000 ) ) ;
#59 = CC_DESIGN_PERSON_AND_ORGANIZATION_ASSIGNMENT ( #221, #15, ( #290 ) ) ;
#60 = DIRECTION ( 'NONE',  ( 0.000000000000000000, 0.000000000000000000, 1.000000000000000000 ) ) ;
#61 = PLANE ( 'NONE',  #32 ) ;
#62 = PERSON_AND_ORGANIZATION ( #35, #160 ) ;
#63 = PRODUCT_RELATED_PRODUCT_CATEGORY ( 'detail', '', ( #290 ) ) ;
#64 = DIRECTION ( 'NONE',  ( -0.000000000000000000, -0.000000000000000000, -1.000000000000000000 ) ) ;
#65 = CYLINDRICAL_SURFACE ( 'NONE', #159, 3.000000000000000444 ) ;
#66 = DIRECTION ( 'NONE',  ( 1.000000000000000000, 0.000000000000000000, 0.000000000000000000 ) ) ;
#67 = AXIS2_PLACEMENT_3D ( 'NONE', #42, #116, #210 ) ;
#68 = PRODUCT_DEFINITION ( 'NEZNÁMÝ', '', #193, #47 ) ;
#69 = VERTEX_POINT ( 'NONE', #167 ) ;
#70 = EDGE_LOOP ( 'NONE', ( #206, #48 ) ) ;
#71 = VERTEX_POINT ( 'NONE', #188 ) ;
#72 = CIRCLE ( 'NONE', #258, 3.000000000000000444 ) ;
#73 = ORIENTED_EDGE ( 'NONE', *, *, #197, .T. ) ;
#74 = DIRECTION ( 'NONE',  ( -0.000000000000000000, -0.000000000000000000, -1.000000000000000000 ) ) ;
#75 = DIRECTION ( 'NONE',  ( 1.000000000000000000, 0.000000000000000000, 0.000000000000000000 ) ) ;
#76 = DIRECTION ( 'NONE',  ( 0.000000000000000000, 0.000000000000000000, 1.000000000000000000 ) ) ;
#77 = TOROIDAL_SURFACE ( 'NONE', #271, 1.700000000000000400, 0.2000000000000000111 ) ;
#78 = CIRCLE ( 'NONE', #182, 3.000000000000000444 ) ;
#79 = DIRECTION ( 'NONE',  ( -0.000000000000000000, -0.000000000000000000, -1.000000000000000000 ) ) ;
#80 = ADVANCED_FACE ( 'NONE', ( #232 ), #26, .T. ) ;
#81 = PERSON_AND_ORGANIZATION_ROLE ( 'classification_officer' ) ;
#82 = DIRECTION ( 'NONE',  ( 1.000000000000000000, 0.000000000000000000, 0.000000000000000000 ) ) ;
#83 = CARTESIAN_POINT ( 'NONE',  ( -3.000000000000000444, 0.000000000000000000, 0.000000000000000000 ) ) ;
#84 = CLOSED_SHELL ( 'NONE', ( #1, #123, #30, #80, #285, #107, #244, #125, #92 ) ) ;
#85 = AXIS2_PLACEMENT_3D ( 'NONE', #287, #164, #257 ) ;
#86 = DATE_TIME_ROLE ( 'classification_date' ) ;
#87 = APPROVAL_ROLE ( '' ) ;
#88 = CARTESIAN_POINT ( 'NONE',  ( 1.700000000000000400, 0.000000000000000000, 3.000000000000004441 ) ) ;
#89 = CARTESIAN_POINT ( 'NONE',  ( 0.000000000000000000, 0.000000000000000000, 3.200000000000008171 ) ) ;
#90 = DIRECTION ( 'NONE',  ( 1.000000000000000000, 0.000000000000000000, 0.000000000000000000 ) ) ;
#91 = CIRCLE ( 'NONE', #18, 1.500000000000000222 ) ;
#92 = ADVANCED_FACE ( 'NONE', ( #97 ), #22, .F. ) ;
#93 = ORIENTED_EDGE ( 'NONE', *, *, #145, .T. ) ;
#94 = ORIENTED_EDGE ( 'NONE', *, *, #145, .F. ) ;
#95 = ORIENTED_EDGE ( 'NONE', *, *, #280, .F. ) ;
#96 = CARTESIAN_POINT ( 'NONE',  ( 0.000000000000000000, 0.000000000000000000, 3.200000000000008171 ) ) ;
#97 = FACE_OUTER_BOUND ( 'NONE', #52, .T. ) ;
#98 = CIRCLE ( 'NONE', #174, 1.700000000000000400 ) ;
#99 = ADVANCED_BREP_SHAPE_REPRESENTATION ( 'e3c7', ( #33, #124 ), #111 ) ;
#100 = CARTESIAN_POINT ( 'NONE',  ( 0.000000000000000000, 0.000000000000000000, 3.200000000000008171 ) ) ;
#101 = CIRCLE ( 'NONE', #165, 1.500000000000000222 ) ;
#102 = PERSON_AND_ORGANIZATION_ROLE ( 'creator' ) ;
#103 = DIRECTION ( 'NONE',  ( -0.000000000000000000, -0.000000000000000000, -1.000000000000000000 ) ) ;
#104 = APPROVAL_DATE_TIME ( #249, #117 ) ;
#105 =( LENGTH_UNIT ( ) NAMED_UNIT ( * ) SI_UNIT ( .MILLI., .METRE. ) );
#106 = DIRECTION ( 'NONE',  ( 0.000000000000000000, 0.000000000000000000, 1.000000000000000000 ) ) ;
#107 = ADVANCED_FACE ( 'NONE', ( #51 ), #142, .F. ) ;
#108 = APPROVAL_STATUS ( 'not_yet_approved' ) ;
#109 = CARTESIAN_POINT ( 'NONE',  ( 0.000000000000000000, 0.000000000000000000, 163.0000000000000000 ) ) ;
#110 = DIRECTION ( 'NONE',  ( 0.000000000000000000, 0.000000000000000000, 1.000000000000000000 ) ) ;
#111 =( GEOMETRIC_REPRESENTATION_CONTEXT ( 3 ) GLOBAL_UNCERTAINTY_ASSIGNED_CONTEXT ( ( #281 ) ) GLOBAL_UNIT_ASSIGNED_CONTEXT ( ( #105, #13, #267 ) ) REPRESENTATION_CONTEXT ( 'NONE', 'WORKASPACE' ) );
#112 = COORDINATED_UNIVERSAL_TIME_OFFSET ( 1, 0, .AHEAD. ) ;
#113 = CARTESIAN_POINT ( 'NONE',  ( -1.500000000000000222, 0.000000000000000000, 163.0000000000000000 ) ) ;
#114 = EDGE_CURVE ( 'NONE', #255, #183, #187, .T. ) ;
#115 = ORIENTED_EDGE ( 'NONE', *, *, #130, .T. ) ;
#116 = DIRECTION ( 'NONE',  ( -0.000000000000000000, -0.000000000000000000, -1.000000000000000000 ) ) ;
#117 = APPROVAL ( #12, 'NEURÈENÝ' ) ;
#118 = APPLICATION_CONTEXT ( 'configuration controlled 3d designs of mechanical parts and assemblies' ) ;
#119 = EDGE_LOOP ( 'NONE', ( #231, #73, #141, #282 ) ) ;
#120 = DIRECTION ( 'NONE',  ( 1.000000000000000000, 0.000000000000000000, -0.000000000000000000 ) ) ;
#121 = AXIS2_PLACEMENT_3D ( 'NONE', #155, #110, #90 ) ;
#122 = AXIS2_PLACEMENT_3D ( 'NONE', #96, #144, #75 ) ;
#123 = ADVANCED_FACE ( 'NONE', ( #234 ), #5, .T. ) ;
#124 = AXIS2_PLACEMENT_3D ( 'NONE', #243, #136, #303 ) ;
#125 = ADVANCED_FACE ( 'NONE', ( #218 ), #147, .T. ) ;
#126 = CARTESIAN_POINT ( 'NONE',  ( 0.000000000000000000, 0.000000000000000000, 3.000000000000000000 ) ) ;
#127 = CALENDAR_DATE ( 2022, 7, 7 ) ;
#128 = CARTESIAN_POINT ( 'NONE',  ( -3.000000000000000444, 0.000000000000000000, 3.000000000000000000 ) ) ;
#129 = AXIS2_PLACEMENT_3D ( 'NONE', #288, #53, #120 ) ;
#130 = EDGE_CURVE ( 'NONE', #49, #185, #72, .T. ) ;
#131 = DIRECTION ( 'NONE',  ( 1.000000000000000000, 0.000000000000000000, 0.000000000000000000 ) ) ;
#132 = LINE ( 'NONE', #201, #279 ) ;
#133 = ORIENTED_EDGE ( 'NONE', *, *, #6, .T. ) ;
#134 = PERSON_AND_ORGANIZATION_ROLE ( 'creator' ) ;
#135 = ORIENTED_EDGE ( 'NONE', *, *, #269, .F. ) ;
#136 = DIRECTION ( 'NONE',  ( 0.000000000000000000, 0.000000000000000000, 1.000000000000000000 ) ) ;
#137 = ORIENTED_EDGE ( 'NONE', *, *, #54, .F. ) ;
#138 = EDGE_LOOP ( 'NONE', ( #21, #115 ) ) ;
#139 = APPROVAL_PERSON_ORGANIZATION ( #175, #117, #305 ) ;
#140 = APPROVAL ( #225, 'NEURÈENÝ' ) ;
#141 = ORIENTED_EDGE ( 'NONE', *, *, #114, .T. ) ;
#142 = PLANE ( 'NONE',  #129 ) ;
#143 = EDGE_LOOP ( 'NONE', ( #286, #135 ) ) ;
#144 = DIRECTION ( 'NONE',  ( 0.000000000000000000, 0.000000000000000000, 1.000000000000000000 ) ) ;
#145 = EDGE_CURVE ( 'NONE', #183, #71, #152, .T. ) ;
#146 = LOCAL_TIME ( 14, 55, 18.00000000000000000, #112 ) ;
#147 = PLANE ( 'NONE',  #9 ) ;
#148 = CARTESIAN_POINT ( 'NONE',  ( 0.000000000000000000, 0.000000000000000000, 0.000000000000000000 ) ) ;
#149 = CC_DESIGN_PERSON_AND_ORGANIZATION_ASSIGNMENT ( #62, #102, ( #68 ) ) ;
#150 = APPLICATION_PROTOCOL_DEFINITION ( 'international standard', 'config_control_design', 1994, #31 ) ;
#151 = CARTESIAN_POINT ( 'NONE',  ( 0.000000000000000000, 0.000000000000000000, 3.000000000000000000 ) ) ;
#152 = CIRCLE ( 'NONE', #292, 0.2000000000000000944 ) ;
#153 = MECHANICAL_CONTEXT ( 'NONE', #118, 'mechanical' ) ;
#154 = DIRECTION ( 'NONE',  ( 0.000000000000000000, 0.000000000000000000, 1.000000000000000000 ) ) ;
#155 = CARTESIAN_POINT ( 'NONE',  ( 0.000000000000000000, 0.000000000000000000, 0.000000000000000000 ) ) ;
#156 = DIRECTION ( 'NONE',  ( -1.000000000000000000, 0.000000000000000000, 0.000000000000000000 ) ) ;
#157 = CALENDAR_DATE ( 2022, 7, 7 ) ;
#158 = VERTEX_POINT ( 'NONE', #83 ) ;
#159 = AXIS2_PLACEMENT_3D ( 'NONE', #180, #277, #156 ) ;
#160 = ORGANIZATION ( 'NEURÈENÝ', 'NEURÈENÝ', '' ) ;
#161 = ORIENTED_EDGE ( 'NONE', *, *, #269, .T. ) ;
#162 = ORIENTED_EDGE ( 'NONE', *, *, #211, .F. ) ;
#163 = ORIENTED_EDGE ( 'NONE', *, *, #289, .T. ) ;
#164 = DIRECTION ( 'NONE',  ( 0.000000000000000000, 0.000000000000000000, 1.000000000000000000 ) ) ;
#165 = AXIS2_PLACEMENT_3D ( 'NONE', #40, #76, #82 ) ;
#166 = VERTEX_POINT ( 'NONE', #213 ) ;
#167 = CARTESIAN_POINT ( 'NONE',  ( 3.000000000000000444, 3.673940397442060361E-16, 0.000000000000000000 ) ) ;
#168 = EDGE_CURVE ( 'NONE', #166, #256, #101, .T. ) ;
#169 = PRODUCT_DEFINITION_SHAPE ( 'NONE', 'NONE',  #68 ) ;
#170 = CARTESIAN_POINT ( 'NONE',  ( 0.000000000000000000, 0.000000000000000000, 163.0000000000000000 ) ) ;
#171 = CYLINDRICAL_SURFACE ( 'NONE', #29, 1.500000000000000222 ) ;
#172 = CARTESIAN_POINT ( 'NONE',  ( -3.000000000000000444, 0.000000000000000000, 3.000000000000000000 ) ) ;
#173 = DIRECTION ( 'NONE',  ( 1.000000000000000000, 0.000000000000000000, 0.000000000000000000 ) ) ;
#174 = AXIS2_PLACEMENT_3D ( 'NONE', #126, #79, #173 ) ;
#175 = PERSON_AND_ORGANIZATION ( #35, #160 ) ;
#176 = DATE_AND_TIME ( #179, #238 ) ;
#177 = DIRECTION ( 'NONE',  ( 1.000000000000000000, 0.000000000000000000, 0.000000000000000000 ) ) ;
#178 = DIRECTION ( 'NONE',  ( -0.000000000000000000, -0.000000000000000000, -1.000000000000000000 ) ) ;
#179 = CALENDAR_DATE ( 2022, 7, 7 ) ;
#180 = CARTESIAN_POINT ( 'NONE',  ( 0.000000000000000000, 0.000000000000000000, 3.000000000000000000 ) ) ;
#181 = AXIS2_PLACEMENT_3D ( 'NONE', #19, #205, #66 ) ;
#182 = AXIS2_PLACEMENT_3D ( 'NONE', #148, #240, #14 ) ;
#183 = VERTEX_POINT ( 'NONE', #194 ) ;
#184 = ORIENTED_EDGE ( 'NONE', *, *, #56, .F. ) ;
#185 = VERTEX_POINT ( 'NONE', #172 ) ;
#186 = DIRECTION ( 'NONE',  ( -1.000000000000000000, 0.000000000000000000, 0.000000000000000000 ) ) ;
#187 = CIRCLE ( 'NONE', #122, 1.500000000000000222 ) ;
#188 = CARTESIAN_POINT ( 'NONE',  ( -1.700000000000000400, 2.081899558550500773E-16, 3.000000000000004441 ) ) ;
#189 = AXIS2_PLACEMENT_3D ( 'NONE', #262, #74, #186 ) ;
#190 = CIRCLE ( 'NONE', #50, 3.000000000000000444 ) ;
#191 = CC_DESIGN_DATE_AND_TIME_ASSIGNMENT ( #278, #86, ( #226 ) ) ;
#192 = CIRCLE ( 'NONE', #67, 1.700000000000000400 ) ;
#193 = PRODUCT_DEFINITION_FORMATION_WITH_SPECIFIED_SOURCE ( 'LIBOVOLNÝ', '', #290, .NOT_KNOWN. ) ;
#194 = CARTESIAN_POINT ( 'NONE',  ( -1.500000000000000222, 0.000000000000000000, 3.200000000000008171 ) ) ;
#195 = DATE_AND_TIME ( #157, #300 ) ;
#196 = FACE_OUTER_BOUND ( 'NONE', #224, .T. ) ;
#197 = EDGE_CURVE ( 'NONE', #166, #255, #11, .T. ) ;
#198 = SHAPE_DEFINITION_REPRESENTATION ( #169, #99 ) ;
#199 = CARTESIAN_POINT ( 'NONE',  ( -1.700000000000000400, 2.081899558550500773E-16, 3.200000000000008171 ) ) ;
#200 = APPROVAL_DATE_TIME ( #215, #253 ) ;
#201 = CARTESIAN_POINT ( 'NONE',  ( 3.000000000000000444, 3.673940397442060361E-16, 3.000000000000000000 ) ) ;
#202 = AXIS2_PLACEMENT_3D ( 'NONE', #41, #57, #242 ) ;
#203 = FACE_OUTER_BOUND ( 'NONE', #2, .T. ) ;
#204 = CALENDAR_DATE ( 2022, 7, 7 ) ;
#205 = DIRECTION ( 'NONE',  ( 0.000000000000000000, 0.000000000000000000, 1.000000000000000000 ) ) ;
#206 = ORIENTED_EDGE ( 'NONE', *, *, #54, .T. ) ;
#207 = ORIENTED_EDGE ( 'NONE', *, *, #223, .F. ) ;
#208 = DIRECTION ( 'NONE',  ( 0.000000000000000000, -1.000000000000000000, 0.000000000000000000 ) ) ;
#209 = ORIENTED_EDGE ( 'NONE', *, *, #38, .F. ) ;
#210 = DIRECTION ( 'NONE',  ( 1.000000000000000000, 0.000000000000000000, 0.000000000000000000 ) ) ;
#211 = EDGE_CURVE ( 'NONE', #183, #255, #91, .T. ) ;
#212 = VECTOR ( 'NONE', #103, 1000.000000000000000 ) ;
#213 = CARTESIAN_POINT ( 'NONE',  ( 1.500000000000000222, 1.836970198721030181E-16, 163.0000000000000000 ) ) ;
#214 = EDGE_CURVE ( 'NONE', #185, #49, #190, .T. ) ;
#215 = DATE_AND_TIME ( #127, #23 ) ;
#216 = VECTOR ( 'NONE', #178, 1000.000000000000000 ) ;
#217 = LOCAL_TIME ( 14, 55, 18.00000000000000000, #241 ) ;
#218 = FACE_OUTER_BOUND ( 'NONE', #248, .T. ) ;
#219 = PERSON_AND_ORGANIZATION_ROLE ( 'design_supplier' ) ;
#220 = CARTESIAN_POINT ( 'NONE',  ( 1.500000000000000222, 1.836970198721030181E-16, 3.200000000000008171 ) ) ;
#221 = PERSON_AND_ORGANIZATION ( #35, #160 ) ;
#222 = CARTESIAN_POINT ( 'NONE',  ( 0.000000000000000000, 0.000000000000000000, 3.000000000000000000 ) ) ;
#223 = EDGE_CURVE ( 'NONE', #71, #307, #98, .T. ) ;
#224 = EDGE_LOOP ( 'NONE', ( #45, #209, #4, #284 ) ) ;
#225 = APPROVAL_STATUS ( 'not_yet_approved' ) ;
#226 = SECURITY_CLASSIFICATION ( '', '', #276 ) ;
#227 = DIRECTION ( 'NONE',  ( 1.000000000000000000, 0.000000000000000000, 0.000000000000000000 ) ) ;
#228 = APPROVAL_ROLE ( '' ) ;
#229 = ORIENTED_EDGE ( 'NONE', *, *, #38, .T. ) ;
#230 = ORIENTED_EDGE ( 'NONE', *, *, #214, .F. ) ;
#231 = ORIENTED_EDGE ( 'NONE', *, *, #168, .F. ) ;
#232 = FACE_OUTER_BOUND ( 'NONE', #233, .T. ) ;
#233 = EDGE_LOOP ( 'NONE', ( #25, #230, #24, #133 ) ) ;
#234 = FACE_OUTER_BOUND ( 'NONE', #119, .T. ) ;
#235 = CIRCLE ( 'NONE', #263, 0.2000000000000000944 ) ;
#236 = CC_DESIGN_APPROVAL ( #140, ( #193 ) ) ;
#237 = CC_DESIGN_PERSON_AND_ORGANIZATION_ASSIGNMENT ( #17, #81, ( #226 ) ) ;
#238 = LOCAL_TIME ( 14, 55, 18.00000000000000000, #294 ) ;
#239 = DIRECTION ( 'NONE',  ( 0.000000000000000000, 0.000000000000000000, 1.000000000000000000 ) ) ;
#240 = DIRECTION ( 'NONE',  ( 0.000000000000000000, 0.000000000000000000, 1.000000000000000000 ) ) ;
#241 = COORDINATED_UNIVERSAL_TIME_OFFSET ( 1, 0, .AHEAD. ) ;
#242 = DIRECTION ( 'NONE',  ( -1.000000000000000000, 0.000000000000000000, 0.000000000000000000 ) ) ;
#243 = CARTESIAN_POINT ( 'NONE',  ( 0.000000000000000000, 0.000000000000000000, 0.000000000000000000 ) ) ;
#244 = ADVANCED_FACE ( 'NONE', ( #196 ), #171, .T. ) ;
#245 = DIRECTION ( 'NONE',  ( 1.000000000000000000, 0.000000000000000000, -0.000000000000000000 ) ) ;
#246 = CARTESIAN_POINT ( 'NONE',  ( 3.000000000000000444, 3.673940397442060361E-16, 3.000000000000000000 ) ) ;
#247 = APPROVAL_DATE_TIME ( #176, #140 ) ;
#248 = EDGE_LOOP ( 'NONE', ( #229, #27 ) ) ;
#249 = DATE_AND_TIME ( #298, #217 ) ;
#250 = PERSON_AND_ORGANIZATION ( #35, #160 ) ;
#251 = CIRCLE ( 'NONE', #121, 3.000000000000000444 ) ;
#252 = CC_DESIGN_APPROVAL ( #253, ( #68 ) ) ;
#253 = APPROVAL ( #108, 'NEURÈENÝ' ) ;
#254 = EDGE_LOOP ( 'NONE', ( #261, #163, #161, #95 ) ) ;
#255 = VERTEX_POINT ( 'NONE', #220 ) ;
#256 = VERTEX_POINT ( 'NONE', #265 ) ;
#257 = DIRECTION ( 'NONE',  ( 1.000000000000000000, 0.000000000000000000, 0.000000000000000000 ) ) ;
#258 = AXIS2_PLACEMENT_3D ( 'NONE', #8, #106, #177 ) ;
#259 = VECTOR ( 'NONE', #64, 1000.000000000000000 ) ;
#260 = CC_DESIGN_PERSON_AND_ORGANIZATION_ASSIGNMENT ( #43, #134, ( #193 ) ) ;
#261 = ORIENTED_EDGE ( 'NONE', *, *, #130, .F. ) ;
#262 = CARTESIAN_POINT ( 'NONE',  ( 0.000000000000000000, 0.000000000000000000, 3.000000000000000000 ) ) ;
#263 = AXIS2_PLACEMENT_3D ( 'NONE', #28, #208, #3 ) ;
#264 = CC_DESIGN_APPROVAL ( #117, ( #226 ) ) ;
#265 = CARTESIAN_POINT ( 'NONE',  ( -1.500000000000000222, 0.000000000000000000, 163.0000000000000000 ) ) ;
#266 = DIRECTION ( 'NONE',  ( -0.000000000000000000, -0.000000000000000000, -1.000000000000000000 ) ) ;
#267 =( NAMED_UNIT ( * ) SI_UNIT ( $, .STERADIAN. ) SOLID_ANGLE_UNIT ( ) );
#268 = DIRECTION ( 'NONE',  ( 1.000000000000000000, 0.000000000000000000, -0.000000000000000000 ) ) ;
#269 = EDGE_CURVE ( 'NONE', #69, #158, #78, .T. ) ;
#270 = APPLICATION_PROTOCOL_DEFINITION ( 'international standard', 'config_control_design', 1994, #118 ) ;
#271 = AXIS2_PLACEMENT_3D ( 'NONE', #89, #44, #227 ) ;
#272 = CC_DESIGN_SECURITY_CLASSIFICATION ( #226, ( #193 ) ) ;
#273 = FACE_OUTER_BOUND ( 'NONE', #138, .T. ) ;
#274 = CARTESIAN_POINT ( 'NONE',  ( 1.500000000000000222, 1.836970198721030181E-16, 163.0000000000000000 ) ) ;
#275 = FACE_OUTER_BOUND ( 'NONE', #254, .T. ) ;
#276 = SECURITY_CLASSIFICATION_LEVEL ( 'unclassified' ) ;
#277 = DIRECTION ( 'NONE',  ( -0.000000000000000000, -0.000000000000000000, -1.000000000000000000 ) ) ;
#278 = DATE_AND_TIME ( #204, #146 ) ;
#279 = VECTOR ( 'NONE', #301, 1000.000000000000000 ) ;
#280 = EDGE_CURVE ( 'NONE', #185, #158, #37, .T. ) ;
#281 = UNCERTAINTY_MEASURE_WITH_UNIT (LENGTH_MEASURE( 1.000000000000000082E-05 ), #105, 'distance_accuracy_value', 'NONE');
#282 = ORIENTED_EDGE ( 'NONE', *, *, #7, .F. ) ;
#283 = ORIENTED_EDGE ( 'NONE', *, *, #114, .F. ) ;
#284 = ORIENTED_EDGE ( 'NONE', *, *, #211, .T. ) ;
#285 = ADVANCED_FACE ( 'NONE', ( #16, #273 ), #61, .T. ) ;
#286 = ORIENTED_EDGE ( 'NONE', *, *, #6, .F. ) ;
#287 = CARTESIAN_POINT ( 'NONE',  ( 0.000000000000000000, 0.000000000000000000, 3.200000000000008171 ) ) ;
#288 = CARTESIAN_POINT ( 'NONE',  ( 0.000000000000000000, 0.000000000000000000, 0.000000000000000000 ) ) ;
#289 = EDGE_CURVE ( 'NONE', #49, #69, #132, .T. ) ;
#290 = PRODUCT ( 'e3c7', 'e3c7', '', ( #153 ) ) ;
#291 = CIRCLE ( 'NONE', #181, 1.500000000000000222 ) ;
#292 = AXIS2_PLACEMENT_3D ( 'NONE', #199, #295, #297 ) ;
#293 = DIRECTION ( 'NONE',  ( 1.000000000000000000, 0.000000000000000000, 0.000000000000000000 ) ) ;
#294 = COORDINATED_UNIVERSAL_TIME_OFFSET ( 1, 0, .AHEAD. ) ;
#295 = DIRECTION ( 'NONE',  ( 1.224646799147353207E-16, 1.000000000000000000, -0.000000000000000000 ) ) ;
#296 = CC_DESIGN_PERSON_AND_ORGANIZATION_ASSIGNMENT ( #250, #219, ( #193 ) ) ;
#297 = DIRECTION ( 'NONE',  ( -1.000000000000000000, 1.224646799147353207E-16, 0.000000000000000000 ) ) ;
#298 = CALENDAR_DATE ( 2022, 7, 7 ) ;
#299 = DATE_TIME_ROLE ( 'creation_date' ) ;
#300 = LOCAL_TIME ( 14, 55, 18.00000000000000000, #10 ) ;
#301 = DIRECTION ( 'NONE',  ( -0.000000000000000000, -0.000000000000000000, -1.000000000000000000 ) ) ;
#302 = ORIENTED_EDGE ( 'NONE', *, *, #56, .T. ) ;
#303 = DIRECTION ( 'NONE',  ( 1.000000000000000000, 0.000000000000000000, 0.000000000000000000 ) ) ;
#304 = LINE ( 'NONE', #113, #216 ) ;
#305 = APPROVAL_ROLE ( '' ) ;
#306 = APPROVAL_PERSON_ORGANIZATION ( #36, #253, #228 ) ;
#307 = VERTEX_POINT ( 'NONE', #88 ) ;
ENDSEC;
END-ISO-10303-21;
