ISO-10303-21;
HEADER;
FILE_DESCRIPTION (( 'STEP AP203' ),
    '1' );
FILE_NAME ('c1f3.STEP',
    '2022-07-07T12:57:43',
    ( '' ),
    ( '' ),
    'SwSTEP 2.0',
    'SolidWorks 2019',
    '' );
FILE_SCHEMA (( 'CONFIG_CONTROL_DESIGN' ));
ENDSEC;

DATA;
#1 = DIRECTION ( 'NONE',  ( -0.000000000000000000, -0.000000000000000000, -1.000000000000000000 ) ) ;
#2 = CARTESIAN_POINT ( 'NONE',  ( 0.000000000000000000, 0.000000000000000000, 0.000000000000000000 ) ) ;
#3 = DIRECTION ( 'NONE',  ( 0.000000000000000000, 0.000000000000000000, 1.000000000000000000 ) ) ;
#4 = DIRECTION ( 'NONE',  ( -0.000000000000000000, -0.000000000000000000, -1.000000000000000000 ) ) ;
#5 = FACE_OUTER_BOUND ( 'NONE', #217, .T. ) ;
#6 = CARTESIAN_POINT ( 'NONE',  ( -1.100000000000000089, 0.000000000000000000, 2.200000000000007283 ) ) ;
#7 = VERTEX_POINT ( 'NONE', #152 ) ;
#8 = APPROVAL_DATE_TIME ( #59, #13 ) ;
#9 = AXIS2_PLACEMENT_3D ( 'NONE', #172, #116, #212 ) ;
#10 = DIRECTION ( 'NONE',  ( -1.000000000000000000, 0.000000000000000000, 0.000000000000000000 ) ) ;
#11 = VERTEX_POINT ( 'NONE', #293 ) ;
#12 = CIRCLE ( 'NONE', #150, 1.100000000000000089 ) ;
#13 = APPROVAL ( #250, 'NEURÈENÝ' ) ;
#14 = PRODUCT ( 'c1f3', 'c1f3', '', ( #82 ) ) ;
#15 = AXIS2_PLACEMENT_3D ( 'NONE', #259, #210, #65 ) ;
#16 = AXIS2_PLACEMENT_3D ( 'NONE', #70, #1, #216 ) ;
#17 = FACE_OUTER_BOUND ( 'NONE', #51, .T. ) ;
#18 = CARTESIAN_POINT ( 'NONE',  ( 2.000000000000000000, 2.449293598294706414E-16, 0.000000000000000000 ) ) ;
#19 = CARTESIAN_POINT ( 'NONE',  ( 0.000000000000000000, 0.000000000000000000, 2.200000000000007283 ) ) ;
#20 = DIRECTION ( 'NONE',  ( 1.000000000000000000, 0.000000000000000000, -0.000000000000000000 ) ) ;
#21 = DIRECTION ( 'NONE',  ( 0.000000000000000000, 0.000000000000000000, 1.000000000000000000 ) ) ;
#22 = ADVANCED_FACE ( 'NONE', ( #5 ), #247, .T. ) ;
#23 = DIRECTION ( 'NONE',  ( 0.000000000000000000, 0.000000000000000000, 1.000000000000000000 ) ) ;
#24 = LOCAL_TIME ( 14, 57, 43.00000000000000000, #158 ) ;
#25 = DIRECTION ( 'NONE',  ( -0.000000000000000000, -0.000000000000000000, -1.000000000000000000 ) ) ;
#26 = CARTESIAN_POINT ( 'NONE',  ( 0.000000000000000000, 0.000000000000000000, 162.0000000000000000 ) ) ;
#27 = PERSON_AND_ORGANIZATION ( #284, #97 ) ;
#28 = VERTEX_POINT ( 'NONE', #201 ) ;
#29 = DESIGN_CONTEXT ( 'detailed design', #99, 'design' ) ;
#30 = ORIENTED_EDGE ( 'NONE', *, *, #269, .F. ) ;
#31 = VERTEX_POINT ( 'NONE', #197 ) ;
#32 = APPROVAL_DATE_TIME ( #60, #44 ) ;
#33 = AXIS2_PLACEMENT_3D ( 'NONE', #286, #3, #118 ) ;
#34 = VERTEX_POINT ( 'NONE', #265 ) ;
#35 = ADVANCED_FACE ( 'NONE', ( #295 ), #37, .F. ) ;
#36 = CALENDAR_DATE ( 2022, 7, 7 ) ;
#37 = TOROIDAL_SURFACE ( 'NONE', #209, 1.300000000000000266, 0.2000000000000000111 ) ;
#38 = ADVANCED_FACE ( 'NONE', ( #306, #264 ), #266, .T. ) ;
#39 = CIRCLE ( 'NONE', #253, 2.000000000000000000 ) ;
#40 = CC_DESIGN_PERSON_AND_ORGANIZATION_ASSIGNMENT ( #274, #134, ( #64 ) ) ;
#41 = AXIS2_PLACEMENT_3D ( 'NONE', #189, #219, #191 ) ;
#42 = DIRECTION ( 'NONE',  ( -0.000000000000000000, -0.000000000000000000, -1.000000000000000000 ) ) ;
#43 = DIRECTION ( 'NONE',  ( 1.224646799147353207E-16, 1.000000000000000000, -0.000000000000000000 ) ) ;
#44 = APPROVAL ( #61, 'NEURÈENÝ' ) ;
#45 = DIRECTION ( 'NONE',  ( 0.000000000000000000, 0.000000000000000000, 1.000000000000000000 ) ) ;
#46 = CC_DESIGN_APPROVAL ( #13, ( #64 ) ) ;
#47 = DIRECTION ( 'NONE',  ( 1.000000000000000000, 0.000000000000000000, 0.000000000000000000 ) ) ;
#48 = EDGE_CURVE ( 'NONE', #7, #75, #143, .T. ) ;
#49 = DIRECTION ( 'NONE',  ( 0.000000000000000000, 0.000000000000000000, 1.000000000000000000 ) ) ;
#50 = ORIENTED_EDGE ( 'NONE', *, *, #291, .F. ) ;
#51 = EDGE_LOOP ( 'NONE', ( #146, #155, #101, #225 ) ) ;
#52 = DIRECTION ( 'NONE',  ( -0.000000000000000000, -0.000000000000000000, -1.000000000000000000 ) ) ;
#53 = PERSON_AND_ORGANIZATION ( #284, #97 ) ;
#54 = ORIENTED_EDGE ( 'NONE', *, *, #206, .T. ) ;
#55 = EDGE_LOOP ( 'NONE', ( #223, #296 ) ) ;
#56 = UNCERTAINTY_MEASURE_WITH_UNIT (LENGTH_MEASURE( 1.000000000000000082E-05 ), #305, 'distance_accuracy_value', 'NONE');
#57 = ADVANCED_FACE ( 'NONE', ( #174 ), #92, .T. ) ;
#58 = ORIENTED_EDGE ( 'NONE', *, *, #133, .T. ) ;
#59 = DATE_AND_TIME ( #256, #24 ) ;
#60 = DATE_AND_TIME ( #36, #287 ) ;
#61 = APPROVAL_STATUS ( 'not_yet_approved' ) ;
#62 = EDGE_CURVE ( 'NONE', #11, #79, #236, .T. ) ;
#63 = AXIS2_PLACEMENT_3D ( 'NONE', #112, #141, #280 ) ;
#64 = PRODUCT_DEFINITION ( 'NEZNÁMÝ', '', #268, #29 ) ;
#65 = DIRECTION ( 'NONE',  ( -1.000000000000000000, 0.000000000000000000, 0.000000000000000000 ) ) ;
#66 = FACE_OUTER_BOUND ( 'NONE', #178, .T. ) ;
#67 = CARTESIAN_POINT ( 'NONE',  ( 0.000000000000000000, 0.000000000000000000, 2.000000000000000000 ) ) ;
#68 = CARTESIAN_POINT ( 'NONE',  ( -2.000000000000000000, 0.000000000000000000, 0.000000000000000000 ) ) ;
#69 = DIRECTION ( 'NONE',  ( 1.000000000000000000, 0.000000000000000000, 0.000000000000000000 ) ) ;
#70 = CARTESIAN_POINT ( 'NONE',  ( 0.000000000000000000, 0.000000000000000000, 2.000000000000000000 ) ) ;
#71 = ORIENTED_EDGE ( 'NONE', *, *, #248, .T. ) ;
#72 = CARTESIAN_POINT ( 'NONE',  ( 0.000000000000000000, 0.000000000000000000, 2.000000000000000000 ) ) ;
#73 = ORIENTED_EDGE ( 'NONE', *, *, #111, .T. ) ;
#74 = ORIENTED_EDGE ( 'NONE', *, *, #291, .T. ) ;
#75 = VERTEX_POINT ( 'NONE', #68 ) ;
#76 = CC_DESIGN_APPROVAL ( #44, ( #268 ) ) ;
#77 = COORDINATED_UNIVERSAL_TIME_OFFSET ( 1, 0, .AHEAD. ) ;
#78 = EDGE_CURVE ( 'NONE', #34, #28, #145, .T. ) ;
#79 = VERTEX_POINT ( 'NONE', #6 ) ;
#80 = ORIENTED_EDGE ( 'NONE', *, *, #62, .T. ) ;
#81 = COORDINATED_UNIVERSAL_TIME_OFFSET ( 1, 0, .AHEAD. ) ;
#82 = MECHANICAL_CONTEXT ( 'NONE', #229, 'mechanical' ) ;
#83 = EDGE_CURVE ( 'NONE', #7, #31, #198, .T. ) ;
#84 = CALENDAR_DATE ( 2022, 7, 7 ) ;
#85 = LOCAL_TIME ( 14, 57, 43.00000000000000000, #77 ) ;
#86 = CIRCLE ( 'NONE', #279, 1.100000000000000089 ) ;
#87 = CC_DESIGN_PERSON_AND_ORGANIZATION_ASSIGNMENT ( #154, #183, ( #14 ) ) ;
#88 = AXIS2_PLACEMENT_3D ( 'NONE', #67, #120, #94 ) ;
#89 = AXIS2_PLACEMENT_3D ( 'NONE', #222, #25, #10 ) ;
#90 = ADVANCED_FACE ( 'NONE', ( #215 ), #140, .F. ) ;
#91 = CARTESIAN_POINT ( 'NONE',  ( 0.000000000000000000, 0.000000000000000000, 162.0000000000000000 ) ) ;
#92 = PLANE ( 'NONE',  #41 ) ;
#93 = CYLINDRICAL_SURFACE ( 'NONE', #15, 1.100000000000000089 ) ;
#94 = DIRECTION ( 'NONE',  ( 1.000000000000000000, 0.000000000000000000, -0.000000000000000000 ) ) ;
#95 = CARTESIAN_POINT ( 'NONE',  ( 0.000000000000000000, 0.000000000000000000, 0.000000000000000000 ) ) ;
#96 = DIRECTION ( 'NONE',  ( 1.000000000000000000, 0.000000000000000000, 0.000000000000000000 ) ) ;
#97 = ORGANIZATION ( 'NEURÈENÝ', 'NEURÈENÝ', '' ) ;
#98 = CARTESIAN_POINT ( 'NONE',  ( -1.100000000000000089, 0.000000000000000000, 162.0000000000000000 ) ) ;
#99 = APPLICATION_CONTEXT ( 'configuration controlled 3d designs of mechanical parts and assemblies' ) ;
#100 = EDGE_LOOP ( 'NONE', ( #128, #73 ) ) ;
#101 = ORIENTED_EDGE ( 'NONE', *, *, #102, .T. ) ;
#102 = EDGE_CURVE ( 'NONE', #28, #79, #185, .T. ) ;
#103 = DATE_AND_TIME ( #226, #85 ) ;
#104 = DIRECTION ( 'NONE',  ( 1.000000000000000000, 0.000000000000000000, 0.000000000000000000 ) ) ;
#105 = ORIENTED_EDGE ( 'NONE', *, *, #248, .F. ) ;
#106 = APPROVAL_PERSON_ORGANIZATION ( #157, #13, #297 ) ;
#107 = DATE_TIME_ROLE ( 'creation_date' ) ;
#108 = CC_DESIGN_DATE_AND_TIME_ASSIGNMENT ( #227, #107, ( #64 ) ) ;
#109 = COORDINATED_UNIVERSAL_TIME_OFFSET ( 1, 0, .AHEAD. ) ;
#110 = CC_DESIGN_PERSON_AND_ORGANIZATION_ASSIGNMENT ( #27, #272, ( #300 ) ) ;
#111 = EDGE_CURVE ( 'NONE', #34, #11, #165, .T. ) ;
#112 = CARTESIAN_POINT ( 'NONE',  ( 0.000000000000000000, 0.000000000000000000, 0.000000000000000000 ) ) ;
#113 = ADVANCED_BREP_SHAPE_REPRESENTATION ( 'c1f3', ( #283, #192 ), #304 ) ;
#114 =( NAMED_UNIT ( * ) PLANE_ANGLE_UNIT ( ) SI_UNIT ( $, .RADIAN. ) );
#115 = APPROVAL_PERSON_ORGANIZATION ( #221, #231, #252 ) ;
#116 = DIRECTION ( 'NONE',  ( 0.000000000000000000, 0.000000000000000000, 1.000000000000000000 ) ) ;
#117 = DIRECTION ( 'NONE',  ( -1.000000000000000000, 0.000000000000000000, 0.000000000000000000 ) ) ;
#118 = DIRECTION ( 'NONE',  ( 1.000000000000000000, 0.000000000000000000, 0.000000000000000000 ) ) ;
#119 = CC_DESIGN_DATE_AND_TIME_ASSIGNMENT ( #254, #126, ( #300 ) ) ;
#120 = DIRECTION ( 'NONE',  ( 0.000000000000000000, 0.000000000000000000, 1.000000000000000000 ) ) ;
#121 = PLANE ( 'NONE',  #162 ) ;
#122 = ORIENTED_EDGE ( 'NONE', *, *, #302, .T. ) ;
#123 = ORIENTED_EDGE ( 'NONE', *, *, #102, .F. ) ;
#124 = CARTESIAN_POINT ( 'NONE',  ( 0.000000000000000000, 0.000000000000000000, 2.200000000000007283 ) ) ;
#125 = CC_DESIGN_PERSON_AND_ORGANIZATION_ASSIGNMENT ( #245, #267, ( #268 ) ) ;
#126 = DATE_TIME_ROLE ( 'classification_date' ) ;
#127 = EDGE_LOOP ( 'NONE', ( #273, #71 ) ) ;
#128 = ORIENTED_EDGE ( 'NONE', *, *, #204, .T. ) ;
#129 = AXIS2_PLACEMENT_3D ( 'NONE', #239, #21, #263 ) ;
#130 = CALENDAR_DATE ( 2022, 7, 7 ) ;
#131 = ORIENTED_EDGE ( 'NONE', *, *, #184, .T. ) ;
#132 = AXIS2_PLACEMENT_3D ( 'NONE', #72, #52, #244 ) ;
#133 = EDGE_CURVE ( 'NONE', #31, #218, #167, .T. ) ;
#134 = PERSON_AND_ORGANIZATION_ROLE ( 'creator' ) ;
#135 = CLOSED_SHELL ( 'NONE', ( #35, #307, #22, #258, #38, #147, #277, #57, #90 ) ) ;
#136 = AXIS2_PLACEMENT_3D ( 'NONE', #169, #188, #171 ) ;
#137 = CC_DESIGN_APPROVAL ( #231, ( #300 ) ) ;
#138 = CARTESIAN_POINT ( 'NONE',  ( 0.000000000000000000, 0.000000000000000000, 2.000000000000000000 ) ) ;
#139 = DIRECTION ( 'NONE',  ( 1.000000000000000000, 0.000000000000000000, 0.000000000000000000 ) ) ;
#140 = TOROIDAL_SURFACE ( 'NONE', #9, 1.300000000000000266, 0.2000000000000000111 ) ;
#141 = DIRECTION ( 'NONE',  ( 0.000000000000000000, 0.000000000000000000, 1.000000000000000000 ) ) ;
#142 = DIRECTION ( 'NONE',  ( 0.000000000000000000, 0.000000000000000000, 1.000000000000000000 ) ) ;
#143 = LINE ( 'NONE', #149, #159 ) ;
#144 = DIRECTION ( 'NONE',  ( 0.000000000000000000, 0.000000000000000000, 1.000000000000000000 ) ) ;
#145 = LINE ( 'NONE', #170, #175 ) ;
#146 = ORIENTED_EDGE ( 'NONE', *, *, #111, .F. ) ;
#147 = ADVANCED_FACE ( 'NONE', ( #261 ), #121, .F. ) ;
#148 = ORIENTED_EDGE ( 'NONE', *, *, #48, .F. ) ;
#149 = CARTESIAN_POINT ( 'NONE',  ( -2.000000000000000000, 0.000000000000000000, 2.000000000000000000 ) ) ;
#150 = AXIS2_PLACEMENT_3D ( 'NONE', #19, #144, #238 ) ;
#151 = PERSON_AND_ORGANIZATION_ROLE ( 'design_supplier' ) ;
#152 = CARTESIAN_POINT ( 'NONE',  ( -2.000000000000000000, 0.000000000000000000, 2.000000000000000000 ) ) ;
#153 = ORIENTED_EDGE ( 'NONE', *, *, #204, .F. ) ;
#154 = PERSON_AND_ORGANIZATION ( #284, #97 ) ;
#155 = ORIENTED_EDGE ( 'NONE', *, *, #78, .T. ) ;
#156 = SECURITY_CLASSIFICATION_LEVEL ( 'unclassified' ) ;
#157 = PERSON_AND_ORGANIZATION ( #284, #97 ) ;
#158 = COORDINATED_UNIVERSAL_TIME_OFFSET ( 1, 0, .AHEAD. ) ;
#159 = VECTOR ( 'NONE', #289, 1000.000000000000000 ) ;
#160 = AXIS2_PLACEMENT_3D ( 'NONE', #164, #43, #187 ) ;
#161 = PRODUCT_DEFINITION_SHAPE ( 'NONE', 'NONE',  #64 ) ;
#162 = AXIS2_PLACEMENT_3D ( 'NONE', #196, #142, #20 ) ;
#163 = FACE_OUTER_BOUND ( 'NONE', #199, .T. ) ;
#164 = CARTESIAN_POINT ( 'NONE',  ( -1.300000000000000266, 1.592040838891559342E-16, 2.200000000000007283 ) ) ;
#165 = CIRCLE ( 'NONE', #33, 1.100000000000000089 ) ;
#166 = EDGE_CURVE ( 'NONE', #251, #177, #168, .T. ) ;
#167 = LINE ( 'NONE', #194, #207 ) ;
#168 = CIRCLE ( 'NONE', #16, 1.300000000000000266 ) ;
#169 = CARTESIAN_POINT ( 'NONE',  ( 0.000000000000000000, 0.000000000000000000, 2.000000000000000000 ) ) ;
#170 = CARTESIAN_POINT ( 'NONE',  ( 1.100000000000000089, 1.347111479062088503E-16, 162.0000000000000000 ) ) ;
#171 = DIRECTION ( 'NONE',  ( 1.000000000000000000, 0.000000000000000000, 0.000000000000000000 ) ) ;
#172 = CARTESIAN_POINT ( 'NONE',  ( 0.000000000000000000, 0.000000000000000000, 2.200000000000007283 ) ) ;
#173 = ORIENTED_EDGE ( 'NONE', *, *, #166, .F. ) ;
#174 = FACE_OUTER_BOUND ( 'NONE', #100, .T. ) ;
#175 = VECTOR ( 'NONE', #241, 1000.000000000000000 ) ;
#176 = ORIENTED_EDGE ( 'NONE', *, *, #206, .F. ) ;
#177 = VERTEX_POINT ( 'NONE', #290 ) ;
#178 = EDGE_LOOP ( 'NONE', ( #270, #153, #80, #54 ) ) ;
#179 = APPROVAL_STATUS ( 'not_yet_approved' ) ;
#180 = CC_DESIGN_PERSON_AND_ORGANIZATION_ASSIGNMENT ( #53, #151, ( #268 ) ) ;
#181 = APPLICATION_PROTOCOL_DEFINITION ( 'international standard', 'config_control_design', 1994, #99 ) ;
#182 = AXIS2_PLACEMENT_3D ( 'NONE', #91, #260, #213 ) ;
#183 = PERSON_AND_ORGANIZATION_ROLE ( 'design_owner' ) ;
#184 = EDGE_CURVE ( 'NONE', #177, #251, #202, .T. ) ;
#185 = CIRCLE ( 'NONE', #129, 1.100000000000000089 ) ;
#186 = CIRCLE ( 'NONE', #136, 2.000000000000000000 ) ;
#187 = DIRECTION ( 'NONE',  ( -1.000000000000000000, 1.224646799147353207E-16, 0.000000000000000000 ) ) ;
#188 = DIRECTION ( 'NONE',  ( 0.000000000000000000, 0.000000000000000000, 1.000000000000000000 ) ) ;
#189 = CARTESIAN_POINT ( 'NONE',  ( 0.000000000000000000, 0.000000000000000000, 162.0000000000000000 ) ) ;
#190 = CYLINDRICAL_SURFACE ( 'NONE', #228, 2.000000000000000000 ) ;
#191 = DIRECTION ( 'NONE',  ( 1.000000000000000000, 0.000000000000000000, -0.000000000000000000 ) ) ;
#192 = AXIS2_PLACEMENT_3D ( 'NONE', #95, #288, #69 ) ;
#193 = APPLICATION_PROTOCOL_DEFINITION ( 'international standard', 'config_control_design', 1994, #229 ) ;
#194 = CARTESIAN_POINT ( 'NONE',  ( 2.000000000000000000, 2.449293598294706414E-16, 2.000000000000000000 ) ) ;
#195 = ORIENTED_EDGE ( 'NONE', *, *, #184, .F. ) ;
#196 = CARTESIAN_POINT ( 'NONE',  ( 0.000000000000000000, 0.000000000000000000, 0.000000000000000000 ) ) ;
#197 = CARTESIAN_POINT ( 'NONE',  ( 2.000000000000000000, 2.449293598294706414E-16, 2.000000000000000000 ) ) ;
#198 = CIRCLE ( 'NONE', #232, 2.000000000000000000 ) ;
#199 = EDGE_LOOP ( 'NONE', ( #243, #249, #271, #122 ) ) ;
#200 = APPROVAL_DATE_TIME ( #103, #231 ) ;
#201 = CARTESIAN_POINT ( 'NONE',  ( 1.100000000000000089, 1.347111479062088503E-16, 2.200000000000007283 ) ) ;
#202 = CIRCLE ( 'NONE', #132, 1.300000000000000266 ) ;
#203 = EDGE_LOOP ( 'NONE', ( #176, #74, #173, #30 ) ) ;
#204 = EDGE_CURVE ( 'NONE', #11, #34, #86, .T. ) ;
#205 = SHAPE_DEFINITION_REPRESENTATION ( #161, #113 ) ;
#206 = EDGE_CURVE ( 'NONE', #79, #28, #12, .T. ) ;
#207 = VECTOR ( 'NONE', #4, 1000.000000000000000 ) ;
#208 = LOCAL_TIME ( 14, 57, 43.00000000000000000, #109 ) ;
#209 = AXIS2_PLACEMENT_3D ( 'NONE', #124, #49, #96 ) ;
#210 = DIRECTION ( 'NONE',  ( -0.000000000000000000, -0.000000000000000000, -1.000000000000000000 ) ) ;
#211 = APPROVAL_PERSON_ORGANIZATION ( #298, #44, #276 ) ;
#212 = DIRECTION ( 'NONE',  ( 1.000000000000000000, 0.000000000000000000, 0.000000000000000000 ) ) ;
#213 = DIRECTION ( 'NONE',  ( -1.000000000000000000, 0.000000000000000000, 0.000000000000000000 ) ) ;
#214 = CARTESIAN_POINT ( 'NONE',  ( 0.000000000000000000, 0.000000000000000000, 2.000000000000000000 ) ) ;
#215 = FACE_OUTER_BOUND ( 'NONE', #294, .T. ) ;
#216 = DIRECTION ( 'NONE',  ( 1.000000000000000000, 0.000000000000000000, 0.000000000000000000 ) ) ;
#217 = EDGE_LOOP ( 'NONE', ( #105, #58, #246, #148 ) ) ;
#218 = VERTEX_POINT ( 'NONE', #18 ) ;
#219 = DIRECTION ( 'NONE',  ( 0.000000000000000000, 0.000000000000000000, 1.000000000000000000 ) ) ;
#220 = ORIENTED_EDGE ( 'NONE', *, *, #269, .T. ) ;
#221 = PERSON_AND_ORGANIZATION ( #284, #97 ) ;
#222 = CARTESIAN_POINT ( 'NONE',  ( 0.000000000000000000, 0.000000000000000000, 2.000000000000000000 ) ) ;
#223 = ORIENTED_EDGE ( 'NONE', *, *, #302, .F. ) ;
#224 = CC_DESIGN_SECURITY_CLASSIFICATION ( #300, ( #268 ) ) ;
#225 = ORIENTED_EDGE ( 'NONE', *, *, #62, .F. ) ;
#226 = CALENDAR_DATE ( 2022, 7, 7 ) ;
#227 = DATE_AND_TIME ( #84, #208 ) ;
#228 = AXIS2_PLACEMENT_3D ( 'NONE', #138, #42, #117 ) ;
#229 = APPLICATION_CONTEXT ( 'configuration controlled 3d designs of mechanical parts and assemblies' ) ;
#230 = DIRECTION ( 'NONE',  ( 0.000000000000000000, 0.000000000000000000, 1.000000000000000000 ) ) ;
#231 = APPROVAL ( #179, 'NEURÈENÝ' ) ;
#232 = AXIS2_PLACEMENT_3D ( 'NONE', #214, #23, #47 ) ;
#233 = CARTESIAN_POINT ( 'NONE',  ( 1.300000000000000266, 0.000000000000000000, 2.000000000000003553 ) ) ;
#234 = CIRCLE ( 'NONE', #301, 0.2000000000000000944 ) ;
#235 = DIRECTION ( 'NONE',  ( 0.000000000000000000, 0.000000000000000000, -1.000000000000000000 ) ) ;
#236 = LINE ( 'NONE', #98, #240 ) ;
#237 = PRODUCT_RELATED_PRODUCT_CATEGORY ( 'detail', '', ( #14 ) ) ;
#238 = DIRECTION ( 'NONE',  ( 1.000000000000000000, 0.000000000000000000, 0.000000000000000000 ) ) ;
#239 = CARTESIAN_POINT ( 'NONE',  ( 0.000000000000000000, 0.000000000000000000, 2.200000000000007283 ) ) ;
#240 = VECTOR ( 'NONE', #282, 1000.000000000000000 ) ;
#241 = DIRECTION ( 'NONE',  ( -0.000000000000000000, -0.000000000000000000, -1.000000000000000000 ) ) ;
#242 = EDGE_LOOP ( 'NONE', ( #292, #131 ) ) ;
#243 = ORIENTED_EDGE ( 'NONE', *, *, #133, .F. ) ;
#244 = DIRECTION ( 'NONE',  ( 1.000000000000000000, 0.000000000000000000, 0.000000000000000000 ) ) ;
#245 = PERSON_AND_ORGANIZATION ( #284, #97 ) ;
#246 = ORIENTED_EDGE ( 'NONE', *, *, #255, .T. ) ;
#247 = CYLINDRICAL_SURFACE ( 'NONE', #89, 2.000000000000000000 ) ;
#248 = EDGE_CURVE ( 'NONE', #31, #7, #186, .T. ) ;
#249 = ORIENTED_EDGE ( 'NONE', *, *, #83, .F. ) ;
#250 = APPROVAL_STATUS ( 'not_yet_approved' ) ;
#251 = VERTEX_POINT ( 'NONE', #233 ) ;
#252 = APPROVAL_ROLE ( '' ) ;
#253 = AXIS2_PLACEMENT_3D ( 'NONE', #2, #230, #139 ) ;
#254 = DATE_AND_TIME ( #130, #275 ) ;
#255 = EDGE_CURVE ( 'NONE', #218, #75, #278, .T. ) ;
#256 = CALENDAR_DATE ( 2022, 7, 7 ) ;
#257 = CIRCLE ( 'NONE', #160, 0.2000000000000000944 ) ;
#258 = ADVANCED_FACE ( 'NONE', ( #163 ), #190, .T. ) ;
#259 = CARTESIAN_POINT ( 'NONE',  ( 0.000000000000000000, 0.000000000000000000, 162.0000000000000000 ) ) ;
#260 = DIRECTION ( 'NONE',  ( -0.000000000000000000, -0.000000000000000000, -1.000000000000000000 ) ) ;
#261 = FACE_OUTER_BOUND ( 'NONE', #55, .T. ) ;
#262 =( NAMED_UNIT ( * ) SI_UNIT ( $, .STERADIAN. ) SOLID_ANGLE_UNIT ( ) );
#263 = DIRECTION ( 'NONE',  ( 1.000000000000000000, 0.000000000000000000, 0.000000000000000000 ) ) ;
#264 = FACE_OUTER_BOUND ( 'NONE', #127, .T. ) ;
#265 = CARTESIAN_POINT ( 'NONE',  ( 1.100000000000000089, 1.347111479062088503E-16, 162.0000000000000000 ) ) ;
#266 = PLANE ( 'NONE',  #88 ) ;
#267 = PERSON_AND_ORGANIZATION_ROLE ( 'creator' ) ;
#268 = PRODUCT_DEFINITION_FORMATION_WITH_SPECIFIED_SOURCE ( 'LIBOVOLNÝ', '', #14, .NOT_KNOWN. ) ;
#269 = EDGE_CURVE ( 'NONE', #28, #251, #234, .T. ) ;
#270 = ORIENTED_EDGE ( 'NONE', *, *, #78, .F. ) ;
#271 = ORIENTED_EDGE ( 'NONE', *, *, #48, .T. ) ;
#272 = PERSON_AND_ORGANIZATION_ROLE ( 'classification_officer' ) ;
#273 = ORIENTED_EDGE ( 'NONE', *, *, #83, .T. ) ;
#274 = PERSON_AND_ORGANIZATION ( #284, #97 ) ;
#275 = LOCAL_TIME ( 14, 57, 43.00000000000000000, #81 ) ;
#276 = APPROVAL_ROLE ( '' ) ;
#277 = ADVANCED_FACE ( 'NONE', ( #66 ), #93, .T. ) ;
#278 = CIRCLE ( 'NONE', #63, 2.000000000000000000 ) ;
#279 = AXIS2_PLACEMENT_3D ( 'NONE', #26, #45, #104 ) ;
#280 = DIRECTION ( 'NONE',  ( 1.000000000000000000, 0.000000000000000000, 0.000000000000000000 ) ) ;
#281 = CARTESIAN_POINT ( 'NONE',  ( 1.300000000000000266, 0.000000000000000000, 2.200000000000007283 ) ) ;
#282 = DIRECTION ( 'NONE',  ( -0.000000000000000000, -0.000000000000000000, -1.000000000000000000 ) ) ;
#283 = MANIFOLD_SOLID_BREP ( 'Zaoblit1', #135 ) ;
#284 = PERSON ( 'NEURÈENÝ', 'NEURÈENÝ', 'NEURÈENÝ', ('NEURÈENÝ'), ('NEURÈENÝ'), ('NEURÈENÝ') ) ;
#285 = DIRECTION ( 'NONE',  ( 0.000000000000000000, -1.000000000000000000, 0.000000000000000000 ) ) ;
#286 = CARTESIAN_POINT ( 'NONE',  ( 0.000000000000000000, 0.000000000000000000, 162.0000000000000000 ) ) ;
#287 = LOCAL_TIME ( 14, 57, 43.00000000000000000, #299 ) ;
#288 = DIRECTION ( 'NONE',  ( 0.000000000000000000, 0.000000000000000000, 1.000000000000000000 ) ) ;
#289 = DIRECTION ( 'NONE',  ( -0.000000000000000000, -0.000000000000000000, -1.000000000000000000 ) ) ;
#290 = CARTESIAN_POINT ( 'NONE',  ( -1.300000000000000266, 1.592040838891559342E-16, 2.000000000000003553 ) ) ;
#291 = EDGE_CURVE ( 'NONE', #79, #177, #257, .T. ) ;
#292 = ORIENTED_EDGE ( 'NONE', *, *, #166, .T. ) ;
#293 = CARTESIAN_POINT ( 'NONE',  ( -1.100000000000000089, 0.000000000000000000, 162.0000000000000000 ) ) ;
#294 = EDGE_LOOP ( 'NONE', ( #50, #123, #220, #195 ) ) ;
#295 = FACE_OUTER_BOUND ( 'NONE', #203, .T. ) ;
#296 = ORIENTED_EDGE ( 'NONE', *, *, #255, .F. ) ;
#297 = APPROVAL_ROLE ( '' ) ;
#298 = PERSON_AND_ORGANIZATION ( #284, #97 ) ;
#299 = COORDINATED_UNIVERSAL_TIME_OFFSET ( 1, 0, .AHEAD. ) ;
#300 = SECURITY_CLASSIFICATION ( '', '', #156 ) ;
#301 = AXIS2_PLACEMENT_3D ( 'NONE', #281, #285, #235 ) ;
#302 = EDGE_CURVE ( 'NONE', #75, #218, #39, .T. ) ;
#303 = CYLINDRICAL_SURFACE ( 'NONE', #182, 1.100000000000000089 ) ;
#304 =( GEOMETRIC_REPRESENTATION_CONTEXT ( 3 ) GLOBAL_UNCERTAINTY_ASSIGNED_CONTEXT ( ( #56 ) ) GLOBAL_UNIT_ASSIGNED_CONTEXT ( ( #305, #114, #262 ) ) REPRESENTATION_CONTEXT ( 'NONE', 'WORKASPACE' ) );
#305 =( LENGTH_UNIT ( ) NAMED_UNIT ( * ) SI_UNIT ( .MILLI., .METRE. ) );
#306 = FACE_BOUND ( 'NONE', #242, .T. ) ;
#307 = ADVANCED_FACE ( 'NONE', ( #17 ), #303, .T. ) ;
ENDSEC;
END-ISO-10303-21;
