ISO-10303-21;
HEADER;
FILE_DESCRIPTION (( 'STEP AP203' ),
    '1' );
FILE_NAME ('1b6b.STEP',
    '2022-07-07T12:18:44',
    ( '' ),
    ( '' ),
    'SwSTEP 2.0',
    'SolidWorks 2019',
    '' );
FILE_SCHEMA (( 'CONFIG_CONTROL_DESIGN' ));
ENDSEC;

DATA;
#1 = CARTESIAN_POINT ( 'NONE',  ( 13.00000000000000178, 1.592040838891559293E-15, 0.000000000000000000 ) ) ;
#2 = ADVANCED_FACE ( 'NONE', ( #136 ), #162, .F. ) ;
#3 = CARTESIAN_POINT ( 'NONE',  ( 13.00000000000000178, 1.592040838891559293E-15, 8.000000000000000000 ) ) ;
#4 = APPLICATION_CONTEXT ( 'configuration controlled 3d designs of mechanical parts and assemblies' ) ;
#5 = APPROVAL_PERSON_ORGANIZATION ( #207, #186, #125 ) ;
#6 = DIRECTION ( 'NONE',  ( 0.000000000000000000, 0.000000000000000000, -1.000000000000000000 ) ) ;
#7 = PERSON_AND_ORGANIZATION ( #194, #276 ) ;
#8 = EDGE_CURVE ( 'NONE', #89, #216, #281, .T. ) ;
#9 = PERSON_AND_ORGANIZATION ( #194, #276 ) ;
#10 = VERTEX_POINT ( 'NONE', #85 ) ;
#11 = AXIS2_PLACEMENT_3D ( 'NONE', #98, #221, #201 ) ;
#12 = APPROVAL_ROLE ( '' ) ;
#13 = ORIENTED_EDGE ( 'NONE', *, *, #149, .T. ) ;
#14 = DATE_AND_TIME ( #230, #101 ) ;
#15 = EDGE_LOOP ( 'NONE', ( #132, #21, #106, #130 ) ) ;
#16 = CALENDAR_DATE ( 2022, 7, 7 ) ;
#17 = CARTESIAN_POINT ( 'NONE',  ( 13.00000000000000178, 1.592040838891559293E-15, 8.000000000000000000 ) ) ;
#18 = CARTESIAN_POINT ( 'NONE',  ( 0.000000000000000000, 0.000000000000000000, 108.0000000000000142 ) ) ;
#19 = DIRECTION ( 'NONE',  ( 0.000000000000000000, 0.000000000000000000, 1.000000000000000000 ) ) ;
#20 = CIRCLE ( 'NONE', #290, 10.20000000000000107 ) ;
#21 = ORIENTED_EDGE ( 'NONE', *, *, #88, .T. ) ;
#22 = DIRECTION ( 'NONE',  ( 1.000000000000000000, 0.000000000000000000, 0.000000000000000000 ) ) ;
#23 = CARTESIAN_POINT ( 'NONE',  ( -10.00000000000000000, 0.000000000000000000, 108.0000000000000142 ) ) ;
#24 =( GEOMETRIC_REPRESENTATION_CONTEXT ( 3 ) GLOBAL_UNCERTAINTY_ASSIGNED_CONTEXT ( ( #273 ) ) GLOBAL_UNIT_ASSIGNED_CONTEXT ( ( #59, #253, #123 ) ) REPRESENTATION_CONTEXT ( 'NONE', 'WORKASPACE' ) );
#25 = CARTESIAN_POINT ( 'NONE',  ( 0.000000000000000000, 0.000000000000000000, 8.000000000000000000 ) ) ;
#26 = DIRECTION ( 'NONE',  ( -0.000000000000000000, -0.000000000000000000, -1.000000000000000000 ) ) ;
#27 = CARTESIAN_POINT ( 'NONE',  ( 10.20000000000000107, 0.000000000000000000, 8.199999999999999289 ) ) ;
#28 = CIRCLE ( 'NONE', #252, 0.2000000000000005107 ) ;
#29 = PERSON_AND_ORGANIZATION_ROLE ( 'creator' ) ;
#30 = DATE_AND_TIME ( #203, #205 ) ;
#31 = AXIS2_PLACEMENT_3D ( 'NONE', #284, #217, #70 ) ;
#32 = CALENDAR_DATE ( 2022, 7, 7 ) ;
#33 = DIRECTION ( 'NONE',  ( 0.000000000000000000, 0.000000000000000000, 1.000000000000000000 ) ) ;
#34 = EDGE_LOOP ( 'NONE', ( #204, #58 ) ) ;
#35 = APPROVAL_DATE_TIME ( #255, #143 ) ;
#36 = EDGE_LOOP ( 'NONE', ( #181, #86, #299, #295 ) ) ;
#37 = DIRECTION ( 'NONE',  ( 0.000000000000000000, 0.000000000000000000, 1.000000000000000000 ) ) ;
#38 = ORIENTED_EDGE ( 'NONE', *, *, #302, .F. ) ;
#39 = VERTEX_POINT ( 'NONE', #257 ) ;
#40 = DIRECTION ( 'NONE',  ( 1.000000000000000000, 0.000000000000000000, 0.000000000000000000 ) ) ;
#41 = DIRECTION ( 'NONE',  ( 1.000000000000000000, 0.000000000000000000, 0.000000000000000000 ) ) ;
#42 = APPLICATION_CONTEXT ( 'configuration controlled 3d designs of mechanical parts and assemblies' ) ;
#43 = CARTESIAN_POINT ( 'NONE',  ( -10.20000000000000107, 1.249139735130300365E-15, 8.199999999999999289 ) ) ;
#44 = AXIS2_PLACEMENT_3D ( 'NONE', #176, #75, #289 ) ;
#45 = CARTESIAN_POINT ( 'NONE',  ( 10.00000000000000000, 1.224646799147353256E-15, 108.0000000000000142 ) ) ;
#46 = DIRECTION ( 'NONE',  ( 0.000000000000000000, -1.000000000000000000, 0.000000000000000000 ) ) ;
#47 = CARTESIAN_POINT ( 'NONE',  ( -13.00000000000000178, 0.000000000000000000, 8.000000000000000000 ) ) ;
#48 = DIRECTION ( 'NONE',  ( 1.000000000000000000, 0.000000000000000000, 0.000000000000000000 ) ) ;
#49 = AXIS2_PLACEMENT_3D ( 'NONE', #243, #33, #180 ) ;
#50 = MECHANICAL_CONTEXT ( 'NONE', #4, 'mechanical' ) ;
#51 = CC_DESIGN_DATE_AND_TIME_ASSIGNMENT ( #105, #183, ( #171 ) ) ;
#52 = APPROVAL_STATUS ( 'not_yet_approved' ) ;
#53 = EDGE_LOOP ( 'NONE', ( #63, #165, #187, #159 ) ) ;
#54 = DIRECTION ( 'NONE',  ( 0.000000000000000000, 0.000000000000000000, 1.000000000000000000 ) ) ;
#55 = CIRCLE ( 'NONE', #150, 10.00000000000000000 ) ;
#56 = AXIS2_PLACEMENT_3D ( 'NONE', #94, #54, #184 ) ;
#57 = DATE_AND_TIME ( #275, #77 ) ;
#58 = ORIENTED_EDGE ( 'NONE', *, *, #198, .F. ) ;
#59 =( LENGTH_UNIT ( ) NAMED_UNIT ( * ) SI_UNIT ( .MILLI., .METRE. ) );
#60 = VERTEX_POINT ( 'NONE', #277 ) ;
#61 = PRODUCT_DEFINITION_SHAPE ( 'NONE', 'NONE',  #171 ) ;
#62 = CC_DESIGN_APPROVAL ( #186, ( #171 ) ) ;
#63 = ORIENTED_EDGE ( 'NONE', *, *, #97, .F. ) ;
#64 = ORIENTED_EDGE ( 'NONE', *, *, #262, .T. ) ;
#65 = DIRECTION ( 'NONE',  ( 1.000000000000000000, 0.000000000000000000, 0.000000000000000000 ) ) ;
#66 = SECURITY_CLASSIFICATION ( '', '', #129 ) ;
#67 = ORIENTED_EDGE ( 'NONE', *, *, #206, .F. ) ;
#68 = AXIS2_PLACEMENT_3D ( 'NONE', #142, #99, #202 ) ;
#69 = FACE_OUTER_BOUND ( 'NONE', #15, .T. ) ;
#70 = DIRECTION ( 'NONE',  ( -1.000000000000000000, 0.000000000000000000, 0.000000000000000000 ) ) ;
#71 = LINE ( 'NONE', #220, #179 ) ;
#72 = AXIS2_PLACEMENT_3D ( 'NONE', #25, #96, #199 ) ;
#73 = PLANE ( 'NONE',  #81 ) ;
#74 = EDGE_CURVE ( 'NONE', #10, #157, #148, .T. ) ;
#75 = DIRECTION ( 'NONE',  ( -0.000000000000000000, -0.000000000000000000, -1.000000000000000000 ) ) ;
#76 = DESIGN_CONTEXT ( 'detailed design', #42, 'design' ) ;
#77 = LOCAL_TIME ( 14, 18, 44.00000000000000000, #153 ) ;
#78 = PERSON_AND_ORGANIZATION ( #194, #276 ) ;
#79 = DIRECTION ( 'NONE',  ( 1.000000000000000000, 0.000000000000000000, 0.000000000000000000 ) ) ;
#80 = AXIS2_PLACEMENT_3D ( 'NONE', #108, #189, #41 ) ;
#81 = AXIS2_PLACEMENT_3D ( 'NONE', #115, #248, #268 ) ;
#82 = APPROVAL_STATUS ( 'not_yet_approved' ) ;
#83 = ORIENTED_EDGE ( 'NONE', *, *, #97, .T. ) ;
#84 = ADVANCED_FACE ( 'NONE', ( #236 ), #91, .T. ) ;
#85 = CARTESIAN_POINT ( 'NONE',  ( 10.00000000000000000, 1.224646799147353256E-15, 8.199999999999999289 ) ) ;
#86 = ORIENTED_EDGE ( 'NONE', *, *, #103, .F. ) ;
#87 = VECTOR ( 'NONE', #112, 1000.000000000000000 ) ;
#88 = EDGE_CURVE ( 'NONE', #169, #114, #239, .T. ) ;
#89 = VERTEX_POINT ( 'NONE', #215 ) ;
#90 = DIRECTION ( 'NONE',  ( 1.000000000000000000, 0.000000000000000000, -0.000000000000000000 ) ) ;
#91 = CYLINDRICAL_SURFACE ( 'NONE', #265, 13.00000000000000178 ) ;
#92 = ADVANCED_FACE ( 'NONE', ( #192 ), #288, .F. ) ;
#93 = CIRCLE ( 'NONE', #174, 13.00000000000000178 ) ;
#94 = CARTESIAN_POINT ( 'NONE',  ( 0.000000000000000000, 0.000000000000000000, 108.0000000000000142 ) ) ;
#95 = CARTESIAN_POINT ( 'NONE',  ( 0.000000000000000000, 0.000000000000000000, 0.000000000000000000 ) ) ;
#96 = DIRECTION ( 'NONE',  ( 0.000000000000000000, 0.000000000000000000, 1.000000000000000000 ) ) ;
#97 = EDGE_CURVE ( 'NONE', #157, #10, #55, .T. ) ;
#98 = CARTESIAN_POINT ( 'NONE',  ( 0.000000000000000000, 0.000000000000000000, 0.000000000000000000 ) ) ;
#99 = DIRECTION ( 'NONE',  ( -0.000000000000000000, -0.000000000000000000, -1.000000000000000000 ) ) ;
#100 = PERSON_AND_ORGANIZATION ( #194, #276 ) ;
#101 = LOCAL_TIME ( 14, 18, 44.00000000000000000, #154 ) ;
#102 = VERTEX_POINT ( 'NONE', #167 ) ;
#103 = EDGE_CURVE ( 'NONE', #102, #169, #93, .T. ) ;
#104 = ORIENTED_EDGE ( 'NONE', *, *, #161, .T. ) ;
#105 = DATE_AND_TIME ( #32, #245 ) ;
#106 = ORIENTED_EDGE ( 'NONE', *, *, #198, .T. ) ;
#107 = ORIENTED_EDGE ( 'NONE', *, *, #206, .T. ) ;
#108 = CARTESIAN_POINT ( 'NONE',  ( 0.000000000000000000, 0.000000000000000000, 8.199999999999999289 ) ) ;
#109 = CC_DESIGN_PERSON_AND_ORGANIZATION_ASSIGNMENT ( #178, #155, ( #171 ) ) ;
#110 = EDGE_LOOP ( 'NONE', ( #67, #191, #104, #83 ) ) ;
#111 = AXIS2_PLACEMENT_3D ( 'NONE', #261, #37, #134 ) ;
#112 = DIRECTION ( 'NONE',  ( -0.000000000000000000, -0.000000000000000000, -1.000000000000000000 ) ) ;
#113 = EDGE_CURVE ( 'NONE', #60, #209, #256, .T. ) ;
#114 = VERTEX_POINT ( 'NONE', #1 ) ;
#115 = CARTESIAN_POINT ( 'NONE',  ( 0.000000000000000000, 0.000000000000000000, 108.0000000000000142 ) ) ;
#116 = CYLINDRICAL_SURFACE ( 'NONE', #31, 13.00000000000000178 ) ;
#117 = CARTESIAN_POINT ( 'NONE',  ( 0.000000000000000000, 0.000000000000000000, 8.000000000000000000 ) ) ;
#118 = CC_DESIGN_PERSON_AND_ORGANIZATION_ASSIGNMENT ( #7, #294, ( #297 ) ) ;
#119 = LINE ( 'NONE', #23, #271 ) ;
#120 = AXIS2_PLACEMENT_3D ( 'NONE', #300, #19, #90 ) ;
#121 = DIRECTION ( 'NONE',  ( -1.000000000000000000, 1.224646799147353207E-16, 0.000000000000000000 ) ) ;
#122 = CIRCLE ( 'NONE', #127, 13.00000000000000178 ) ;
#123 =( NAMED_UNIT ( * ) SI_UNIT ( $, .STERADIAN. ) SOLID_ANGLE_UNIT ( ) );
#124 = ADVANCED_FACE ( 'NONE', ( #267 ), #219, .T. ) ;
#125 = APPROVAL_ROLE ( '' ) ;
#126 = ORIENTED_EDGE ( 'NONE', *, *, #103, .T. ) ;
#127 = AXIS2_PLACEMENT_3D ( 'NONE', #95, #196, #22 ) ;
#128 = CARTESIAN_POINT ( 'NONE',  ( 0.000000000000000000, 0.000000000000000000, 0.000000000000000000 ) ) ;
#129 = SECURITY_CLASSIFICATION_LEVEL ( 'unclassified' ) ;
#130 = ORIENTED_EDGE ( 'NONE', *, *, #138, .F. ) ;
#131 = SHAPE_DEFINITION_REPRESENTATION ( #61, #285 ) ;
#132 = ORIENTED_EDGE ( 'NONE', *, *, #149, .F. ) ;
#133 = AXIS2_PLACEMENT_3D ( 'NONE', #27, #46, #6 ) ;
#134 = DIRECTION ( 'NONE',  ( 1.000000000000000000, 0.000000000000000000, 0.000000000000000000 ) ) ;
#135 = CARTESIAN_POINT ( 'NONE',  ( 0.000000000000000000, 0.000000000000000000, 8.000000000000000000 ) ) ;
#136 = FACE_OUTER_BOUND ( 'NONE', #34, .T. ) ;
#137 = AXIS2_PLACEMENT_3D ( 'NONE', #18, #305, #304 ) ;
#138 = EDGE_CURVE ( 'NONE', #102, #39, #247, .T. ) ;
#139 = LOCAL_TIME ( 14, 18, 44.00000000000000000, #160 ) ;
#140 = AXIS2_PLACEMENT_3D ( 'NONE', #128, #296, #79 ) ;
#141 = CARTESIAN_POINT ( 'NONE',  ( 0.000000000000000000, 0.000000000000000000, 8.000000000000000000 ) ) ;
#142 = CARTESIAN_POINT ( 'NONE',  ( 0.000000000000000000, 0.000000000000000000, 108.0000000000000142 ) ) ;
#143 = APPROVAL ( #82, 'NEURÈENÝ' ) ;
#144 = FACE_OUTER_BOUND ( 'NONE', #260, .T. ) ;
#145 = EDGE_CURVE ( 'NONE', #39, #114, #122, .T. ) ;
#146 = DIRECTION ( 'NONE',  ( 1.224646799147353207E-16, 1.000000000000000000, -0.000000000000000000 ) ) ;
#147 = DIRECTION ( 'NONE',  ( -0.000000000000000000, -0.000000000000000000, -1.000000000000000000 ) ) ;
#148 = CIRCLE ( 'NONE', #111, 10.00000000000000000 ) ;
#149 = EDGE_CURVE ( 'NONE', #169, #102, #235, .T. ) ;
#150 = AXIS2_PLACEMENT_3D ( 'NONE', #278, #280, #65 ) ;
#151 = FACE_OUTER_BOUND ( 'NONE', #53, .T. ) ;
#152 = CIRCLE ( 'NONE', #133, 0.2000000000000005107 ) ;
#153 = COORDINATED_UNIVERSAL_TIME_OFFSET ( 1, 0, .AHEAD. ) ;
#154 = COORDINATED_UNIVERSAL_TIME_OFFSET ( 1, 0, .AHEAD. ) ;
#155 = PERSON_AND_ORGANIZATION_ROLE ( 'creator' ) ;
#156 = APPROVAL ( #52, 'NEURÈENÝ' ) ;
#157 = VERTEX_POINT ( 'NONE', #170 ) ;
#158 = PERSON_AND_ORGANIZATION_ROLE ( 'design_supplier' ) ;
#159 = ORIENTED_EDGE ( 'NONE', *, *, #233, .F. ) ;
#160 = COORDINATED_UNIVERSAL_TIME_OFFSET ( 1, 0, .AHEAD. ) ;
#161 = EDGE_CURVE ( 'NONE', #89, #157, #119, .T. ) ;
#162 = PLANE ( 'NONE',  #120 ) ;
#163 = AXIS2_PLACEMENT_3D ( 'NONE', #141, #175, #306 ) ;
#164 = CC_DESIGN_SECURITY_CLASSIFICATION ( #66, ( #270 ) ) ;
#165 = ORIENTED_EDGE ( 'NONE', *, *, #250, .T. ) ;
#166 = CARTESIAN_POINT ( 'NONE',  ( 0.000000000000000000, 0.000000000000000000, 8.000000000000000000 ) ) ;
#167 = CARTESIAN_POINT ( 'NONE',  ( -13.00000000000000178, 0.000000000000000000, 8.000000000000000000 ) ) ;
#168 = CC_DESIGN_PERSON_AND_ORGANIZATION_ASSIGNMENT ( #100, #158, ( #270 ) ) ;
#169 = VERTEX_POINT ( 'NONE', #3 ) ;
#170 = CARTESIAN_POINT ( 'NONE',  ( -10.00000000000000000, 0.000000000000000000, 8.199999999999999289 ) ) ;
#171 = PRODUCT_DEFINITION ( 'NEZNÁMÝ', '', #270, #76 ) ;
#172 = ADVANCED_FACE ( 'NONE', ( #69 ), #116, .T. ) ;
#173 = DIRECTION ( 'NONE',  ( -0.000000000000000000, -0.000000000000000000, -1.000000000000000000 ) ) ;
#174 = AXIS2_PLACEMENT_3D ( 'NONE', #135, #263, #40 ) ;
#175 = DIRECTION ( 'NONE',  ( -0.000000000000000000, -0.000000000000000000, -1.000000000000000000 ) ) ;
#176 = CARTESIAN_POINT ( 'NONE',  ( 0.000000000000000000, 0.000000000000000000, 108.0000000000000142 ) ) ;
#177 = CYLINDRICAL_SURFACE ( 'NONE', #68, 10.00000000000000000 ) ;
#178 = PERSON_AND_ORGANIZATION ( #194, #276 ) ;
#179 = VECTOR ( 'NONE', #173, 1000.000000000000000 ) ;
#180 = DIRECTION ( 'NONE',  ( 1.000000000000000000, 0.000000000000000000, 0.000000000000000000 ) ) ;
#181 = ORIENTED_EDGE ( 'NONE', *, *, #88, .F. ) ;
#182 = APPLICATION_PROTOCOL_DEFINITION ( 'international standard', 'config_control_design', 1994, #42 ) ;
#183 = DATE_TIME_ROLE ( 'creation_date' ) ;
#184 = DIRECTION ( 'NONE',  ( 1.000000000000000000, 0.000000000000000000, 0.000000000000000000 ) ) ;
#185 = ORIENTED_EDGE ( 'NONE', *, *, #233, .T. ) ;
#186 = APPROVAL ( #274, 'NEURÈENÝ' ) ;
#187 = ORIENTED_EDGE ( 'NONE', *, *, #113, .F. ) ;
#188 = VECTOR ( 'NONE', #147, 1000.000000000000000 ) ;
#189 = DIRECTION ( 'NONE',  ( 0.000000000000000000, 0.000000000000000000, 1.000000000000000000 ) ) ;
#190 = AXIS2_PLACEMENT_3D ( 'NONE', #117, #197, #286 ) ;
#191 = ORIENTED_EDGE ( 'NONE', *, *, #8, .F. ) ;
#192 = FACE_OUTER_BOUND ( 'NONE', #212, .T. ) ;
#193 = DIRECTION ( 'NONE',  ( -0.000000000000000000, -0.000000000000000000, -1.000000000000000000 ) ) ;
#194 = PERSON ( 'NEURÈENÝ', 'NEURÈENÝ', 'NEURÈENÝ', ('NEURÈENÝ'), ('NEURÈENÝ'), ('NEURÈENÝ') ) ;
#195 = CIRCLE ( 'NONE', #56, 10.00000000000000000 ) ;
#196 = DIRECTION ( 'NONE',  ( 0.000000000000000000, 0.000000000000000000, 1.000000000000000000 ) ) ;
#197 = DIRECTION ( 'NONE',  ( 0.000000000000000000, 0.000000000000000000, 1.000000000000000000 ) ) ;
#198 = EDGE_CURVE ( 'NONE', #114, #39, #210, .T. ) ;
#199 = DIRECTION ( 'NONE',  ( 1.000000000000000000, 0.000000000000000000, -0.000000000000000000 ) ) ;
#200 = TOROIDAL_SURFACE ( 'NONE', #49, 10.20000000000000107, 0.2000000000000000111 ) ;
#201 = DIRECTION ( 'NONE',  ( 1.000000000000000000, 0.000000000000000000, 0.000000000000000000 ) ) ;
#202 = DIRECTION ( 'NONE',  ( -1.000000000000000000, 0.000000000000000000, 0.000000000000000000 ) ) ;
#203 = CALENDAR_DATE ( 2022, 7, 7 ) ;
#204 = ORIENTED_EDGE ( 'NONE', *, *, #145, .F. ) ;
#205 = LOCAL_TIME ( 14, 18, 44.00000000000000000, #224 ) ;
#206 = EDGE_CURVE ( 'NONE', #216, #10, #71, .T. ) ;
#207 = PERSON_AND_ORGANIZATION ( #194, #276 ) ;
#208 = DATE_TIME_ROLE ( 'classification_date' ) ;
#209 = VERTEX_POINT ( 'NONE', #266 ) ;
#210 = CIRCLE ( 'NONE', #11, 13.00000000000000178 ) ;
#211 = ORIENTED_EDGE ( 'NONE', *, *, #74, .T. ) ;
#212 = EDGE_LOOP ( 'NONE', ( #237, #303, #185, #254 ) ) ;
#213 = ORIENTED_EDGE ( 'NONE', *, *, #302, .T. ) ;
#214 = APPROVAL_PERSON_ORGANIZATION ( #228, #156, #12 ) ;
#215 = CARTESIAN_POINT ( 'NONE',  ( -10.00000000000000000, 0.000000000000000000, 108.0000000000000142 ) ) ;
#216 = VERTEX_POINT ( 'NONE', #45 ) ;
#217 = DIRECTION ( 'NONE',  ( -0.000000000000000000, -0.000000000000000000, -1.000000000000000000 ) ) ;
#218 = ADVANCED_FACE ( 'NONE', ( #291 ), #73, .T. ) ;
#219 = CYLINDRICAL_SURFACE ( 'NONE', #44, 10.00000000000000000 ) ;
#220 = CARTESIAN_POINT ( 'NONE',  ( 10.00000000000000000, 1.224646799147353256E-15, 108.0000000000000142 ) ) ;
#221 = DIRECTION ( 'NONE',  ( 0.000000000000000000, 0.000000000000000000, 1.000000000000000000 ) ) ;
#222 = FACE_OUTER_BOUND ( 'NONE', #110, .T. ) ;
#223 = APPLICATION_PROTOCOL_DEFINITION ( 'international standard', 'config_control_design', 1994, #4 ) ;
#224 = COORDINATED_UNIVERSAL_TIME_OFFSET ( 1, 0, .AHEAD. ) ;
#225 = CLOSED_SHELL ( 'NONE', ( #283, #124, #172, #84, #242, #2, #259, #218, #92 ) ) ;
#226 = APPROVAL_PERSON_ORGANIZATION ( #298, #143, #232 ) ;
#227 = ORIENTED_EDGE ( 'NONE', *, *, #161, .F. ) ;
#228 = PERSON_AND_ORGANIZATION ( #194, #276 ) ;
#229 = EDGE_LOOP ( 'NONE', ( #279, #64 ) ) ;
#230 = CALENDAR_DATE ( 2022, 7, 7 ) ;
#231 = ORIENTED_EDGE ( 'NONE', *, *, #8, .T. ) ;
#232 = APPROVAL_ROLE ( '' ) ;
#233 = EDGE_CURVE ( 'NONE', #10, #60, #152, .T. ) ;
#234 = CC_DESIGN_APPROVAL ( #143, ( #66 ) ) ;
#235 = CIRCLE ( 'NONE', #190, 13.00000000000000178 ) ;
#236 = FACE_OUTER_BOUND ( 'NONE', #36, .T. ) ;
#237 = ORIENTED_EDGE ( 'NONE', *, *, #250, .F. ) ;
#238 = CC_DESIGN_DATE_AND_TIME_ASSIGNMENT ( #14, #208, ( #66 ) ) ;
#239 = LINE ( 'NONE', #17, #87 ) ;
#240 = CC_DESIGN_APPROVAL ( #156, ( #270 ) ) ;
#241 = EDGE_LOOP ( 'NONE', ( #231, #213 ) ) ;
#242 = ADVANCED_FACE ( 'NONE', ( #264, #144 ), #246, .T. ) ;
#243 = CARTESIAN_POINT ( 'NONE',  ( 0.000000000000000000, 0.000000000000000000, 8.199999999999999289 ) ) ;
#244 = MANIFOLD_SOLID_BREP ( 'Zaoblit1', #225 ) ;
#245 = LOCAL_TIME ( 14, 18, 44.00000000000000000, #251 ) ;
#246 = PLANE ( 'NONE',  #72 ) ;
#247 = LINE ( 'NONE', #47, #188 ) ;
#248 = DIRECTION ( 'NONE',  ( 0.000000000000000000, 0.000000000000000000, 1.000000000000000000 ) ) ;
#249 = APPROVAL_DATE_TIME ( #57, #156 ) ;
#250 = EDGE_CURVE ( 'NONE', #157, #209, #28, .T. ) ;
#251 = COORDINATED_UNIVERSAL_TIME_OFFSET ( 1, 0, .AHEAD. ) ;
#252 = AXIS2_PLACEMENT_3D ( 'NONE', #43, #146, #121 ) ;
#253 =( NAMED_UNIT ( * ) PLANE_ANGLE_UNIT ( ) SI_UNIT ( $, .RADIAN. ) );
#254 = ORIENTED_EDGE ( 'NONE', *, *, #262, .F. ) ;
#255 = DATE_AND_TIME ( #16, #139 ) ;
#256 = CIRCLE ( 'NONE', #163, 10.20000000000000107 ) ;
#257 = CARTESIAN_POINT ( 'NONE',  ( -13.00000000000000178, 0.000000000000000000, 0.000000000000000000 ) ) ;
#258 = CC_DESIGN_PERSON_AND_ORGANIZATION_ASSIGNMENT ( #78, #272, ( #66 ) ) ;
#259 = ADVANCED_FACE ( 'NONE', ( #222 ), #177, .T. ) ;
#260 = EDGE_LOOP ( 'NONE', ( #126, #13 ) ) ;
#261 = CARTESIAN_POINT ( 'NONE',  ( 0.000000000000000000, 0.000000000000000000, 8.199999999999999289 ) ) ;
#262 = EDGE_CURVE ( 'NONE', #209, #60, #20, .T. ) ;
#263 = DIRECTION ( 'NONE',  ( 0.000000000000000000, 0.000000000000000000, 1.000000000000000000 ) ) ;
#264 = FACE_BOUND ( 'NONE', #229, .T. ) ;
#265 = AXIS2_PLACEMENT_3D ( 'NONE', #166, #193, #282 ) ;
#266 = CARTESIAN_POINT ( 'NONE',  ( -10.20000000000000107, 1.249139735130300365E-15, 8.000000000000000000 ) ) ;
#267 = FACE_OUTER_BOUND ( 'NONE', #301, .T. ) ;
#268 = DIRECTION ( 'NONE',  ( 1.000000000000000000, 0.000000000000000000, -0.000000000000000000 ) ) ;
#269 = DIRECTION ( 'NONE',  ( -0.000000000000000000, -0.000000000000000000, -1.000000000000000000 ) ) ;
#270 = PRODUCT_DEFINITION_FORMATION_WITH_SPECIFIED_SOURCE ( 'LIBOVOLNÝ', '', #297, .NOT_KNOWN. ) ;
#271 = VECTOR ( 'NONE', #26, 1000.000000000000000 ) ;
#272 = PERSON_AND_ORGANIZATION_ROLE ( 'classification_officer' ) ;
#273 = UNCERTAINTY_MEASURE_WITH_UNIT (LENGTH_MEASURE( 1.000000000000000082E-05 ), #59, 'distance_accuracy_value', 'NONE');
#274 = APPROVAL_STATUS ( 'not_yet_approved' ) ;
#275 = CALENDAR_DATE ( 2022, 7, 7 ) ;
#276 = ORGANIZATION ( 'NEURÈENÝ', 'NEURÈENÝ', '' ) ;
#277 = CARTESIAN_POINT ( 'NONE',  ( 10.20000000000000107, 0.000000000000000000, 8.000000000000000000 ) ) ;
#278 = CARTESIAN_POINT ( 'NONE',  ( 0.000000000000000000, 0.000000000000000000, 8.199999999999999289 ) ) ;
#279 = ORIENTED_EDGE ( 'NONE', *, *, #113, .T. ) ;
#280 = DIRECTION ( 'NONE',  ( 0.000000000000000000, 0.000000000000000000, 1.000000000000000000 ) ) ;
#281 = CIRCLE ( 'NONE', #137, 10.00000000000000000 ) ;
#282 = DIRECTION ( 'NONE',  ( -1.000000000000000000, 0.000000000000000000, 0.000000000000000000 ) ) ;
#283 = ADVANCED_FACE ( 'NONE', ( #151 ), #200, .F. ) ;
#284 = CARTESIAN_POINT ( 'NONE',  ( 0.000000000000000000, 0.000000000000000000, 8.000000000000000000 ) ) ;
#285 = ADVANCED_BREP_SHAPE_REPRESENTATION ( '1b6b', ( #244, #140 ), #24 ) ;
#286 = DIRECTION ( 'NONE',  ( 1.000000000000000000, 0.000000000000000000, 0.000000000000000000 ) ) ;
#287 = PRODUCT_RELATED_PRODUCT_CATEGORY ( 'detail', '', ( #297 ) ) ;
#288 = TOROIDAL_SURFACE ( 'NONE', #80, 10.20000000000000107, 0.2000000000000000111 ) ;
#289 = DIRECTION ( 'NONE',  ( -1.000000000000000000, 0.000000000000000000, 0.000000000000000000 ) ) ;
#290 = AXIS2_PLACEMENT_3D ( 'NONE', #292, #269, #48 ) ;
#291 = FACE_OUTER_BOUND ( 'NONE', #241, .T. ) ;
#292 = CARTESIAN_POINT ( 'NONE',  ( 0.000000000000000000, 0.000000000000000000, 8.000000000000000000 ) ) ;
#293 = APPROVAL_DATE_TIME ( #30, #186 ) ;
#294 = PERSON_AND_ORGANIZATION_ROLE ( 'design_owner' ) ;
#295 = ORIENTED_EDGE ( 'NONE', *, *, #145, .T. ) ;
#296 = DIRECTION ( 'NONE',  ( 0.000000000000000000, 0.000000000000000000, 1.000000000000000000 ) ) ;
#297 = PRODUCT ( '1b6b', '1b6b', '', ( #50 ) ) ;
#298 = PERSON_AND_ORGANIZATION ( #194, #276 ) ;
#299 = ORIENTED_EDGE ( 'NONE', *, *, #138, .T. ) ;
#300 = CARTESIAN_POINT ( 'NONE',  ( 0.000000000000000000, 0.000000000000000000, 0.000000000000000000 ) ) ;
#301 = EDGE_LOOP ( 'NONE', ( #38, #107, #211, #227 ) ) ;
#302 = EDGE_CURVE ( 'NONE', #216, #89, #195, .T. ) ;
#303 = ORIENTED_EDGE ( 'NONE', *, *, #74, .F. ) ;
#304 = DIRECTION ( 'NONE',  ( 1.000000000000000000, 0.000000000000000000, 0.000000000000000000 ) ) ;
#305 = DIRECTION ( 'NONE',  ( 0.000000000000000000, 0.000000000000000000, 1.000000000000000000 ) ) ;
#306 = DIRECTION ( 'NONE',  ( 1.000000000000000000, 0.000000000000000000, 0.000000000000000000 ) ) ;
#307 = CC_DESIGN_PERSON_AND_ORGANIZATION_ASSIGNMENT ( #9, #29, ( #270 ) ) ;
ENDSEC;
END-ISO-10303-21;
