ISO-10303-21;
HEADER;
FILE_DESCRIPTION (( 'STEP AP203' ),
    '1' );
FILE_NAME ('d9f0.STEP',
    '2022-07-07T12:27:46',
    ( '' ),
    ( '' ),
    'SwSTEP 2.0',
    'SolidWorks 2019',
    '' );
FILE_SCHEMA (( 'CONFIG_CONTROL_DESIGN' ));
ENDSEC;

DATA;
#1 = CC_DESIGN_PERSON_AND_ORGANIZATION_ASSIGNMENT ( #280, #25, ( #270 ) ) ;
#2 = DIRECTION ( 'NONE',  ( -0.000000000000000000, -0.000000000000000000, -1.000000000000000000 ) ) ;
#3 = FACE_OUTER_BOUND ( 'NONE', #49, .T. ) ;
#4 = CARTESIAN_POINT ( 'NONE',  ( 0.000000000000000000, 0.000000000000000000, 5.000000000000000000 ) ) ;
#5 = EDGE_CURVE ( 'NONE', #65, #84, #43, .T. ) ;
#6 = DIRECTION ( 'NONE',  ( 1.000000000000000000, 0.000000000000000000, 0.000000000000000000 ) ) ;
#7 = DIRECTION ( 'NONE',  ( 0.000000000000000000, 0.000000000000000000, 1.000000000000000000 ) ) ;
#8 = TOROIDAL_SURFACE ( 'NONE', #241, 5.200000000000000178, 0.2000000000000000111 ) ;
#9 = CIRCLE ( 'NONE', #248, 8.000000000000000000 ) ;
#10 = VERTEX_POINT ( 'NONE', #66 ) ;
#11 = ORIENTED_EDGE ( 'NONE', *, *, #167, .T. ) ;
#12 = AXIS2_PLACEMENT_3D ( 'NONE', #298, #120, #22 ) ;
#13 = ADVANCED_FACE ( 'NONE', ( #177 ), #24, .T. ) ;
#14 = CIRCLE ( 'NONE', #226, 5.200000000000000178 ) ;
#15 = ORIENTED_EDGE ( 'NONE', *, *, #108, .T. ) ;
#16 = APPROVAL_DATE_TIME ( #221, #61 ) ;
#17 = ORIENTED_EDGE ( 'NONE', *, *, #174, .T. ) ;
#18 = PERSON_AND_ORGANIZATION ( #194, #60 ) ;
#19 = ADVANCED_FACE ( 'NONE', ( #161 ), #175, .F. ) ;
#20 = DIRECTION ( 'NONE',  ( 1.000000000000000000, 0.000000000000000000, 0.000000000000000000 ) ) ;
#21 = APPROVAL_ROLE ( '' ) ;
#22 = DIRECTION ( 'NONE',  ( 1.000000000000000000, 0.000000000000000000, 0.000000000000000000 ) ) ;
#23 = APPROVAL_ROLE ( '' ) ;
#24 = CYLINDRICAL_SURFACE ( 'NONE', #105, 5.000000000000000000 ) ;
#25 = PERSON_AND_ORGANIZATION_ROLE ( 'classification_officer' ) ;
#26 = CARTESIAN_POINT ( 'NONE',  ( 5.200000000000000178, 0.000000000000000000, 4.999999999999991118 ) ) ;
#27 = SHAPE_DEFINITION_REPRESENTATION ( #238, #102 ) ;
#28 = COORDINATED_UNIVERSAL_TIME_OFFSET ( 1, 0, .AHEAD. ) ;
#29 = VERTEX_POINT ( 'NONE', #26 ) ;
#30 = AXIS2_PLACEMENT_3D ( 'NONE', #189, #290, #76 ) ;
#31 = CARTESIAN_POINT ( 'NONE',  ( 0.000000000000000000, 0.000000000000000000, 320.0000000000000000 ) ) ;
#32 = DIRECTION ( 'NONE',  ( -0.000000000000000000, -0.000000000000000000, -1.000000000000000000 ) ) ;
#33 = CARTESIAN_POINT ( 'NONE',  ( 8.000000000000000000, 9.797174393178825657E-16, 0.000000000000000000 ) ) ;
#34 = CARTESIAN_POINT ( 'NONE',  ( 8.000000000000000000, 9.797174393178825657E-16, 5.000000000000000000 ) ) ;
#35 = CC_DESIGN_SECURITY_CLASSIFICATION ( #270, ( #38 ) ) ;
#36 = VERTEX_POINT ( 'NONE', #223 ) ;
#37 = EDGE_CURVE ( 'NONE', #10, #215, #242, .T. ) ;
#38 = PRODUCT_DEFINITION_FORMATION_WITH_SPECIFIED_SOURCE ( 'LIBOVOLNÝ', '', #288, .NOT_KNOWN. ) ;
#39 = EDGE_LOOP ( 'NONE', ( #193, #107, #296, #200 ) ) ;
#40 = DIRECTION ( 'NONE',  ( 1.000000000000000000, 0.000000000000000000, 0.000000000000000000 ) ) ;
#41 = DIRECTION ( 'NONE',  ( 1.000000000000000000, 0.000000000000000000, 0.000000000000000000 ) ) ;
#42 = ORIENTED_EDGE ( 'NONE', *, *, #243, .T. ) ;
#43 = CIRCLE ( 'NONE', #276, 8.000000000000000000 ) ;
#44 = LOCAL_TIME ( 14, 27, 46.00000000000000000, #252 ) ;
#45 = DATE_AND_TIME ( #178, #142 ) ;
#46 = DIRECTION ( 'NONE',  ( -1.000000000000000000, 0.000000000000000000, 0.000000000000000000 ) ) ;
#47 = CARTESIAN_POINT ( 'NONE',  ( 5.000000000000000000, 6.123233995736766282E-16, 5.199999999999982414 ) ) ;
#48 = CALENDAR_DATE ( 2022, 7, 7 ) ;
#49 = EDGE_LOOP ( 'NONE', ( #222, #176 ) ) ;
#50 = DIRECTION ( 'NONE',  ( 0.000000000000000000, 0.000000000000000000, 1.000000000000000000 ) ) ;
#51 = AXIS2_PLACEMENT_3D ( 'NONE', #286, #186, #237 ) ;
#52 = EDGE_CURVE ( 'NONE', #113, #155, #86, .T. ) ;
#53 = DIRECTION ( 'NONE',  ( 1.000000000000000000, 0.000000000000000000, -0.000000000000000000 ) ) ;
#54 = CARTESIAN_POINT ( 'NONE',  ( 0.000000000000000000, 0.000000000000000000, 0.000000000000000000 ) ) ;
#55 = CARTESIAN_POINT ( 'NONE',  ( 5.000000000000000000, 6.123233995736766282E-16, 320.0000000000000000 ) ) ;
#56 = PRODUCT_DEFINITION ( 'NEZNÁMÝ', '', #38, #85 ) ;
#57 = PLANE ( 'NONE',  #218 ) ;
#58 = APPROVAL ( #162, 'NEURÈENÝ' ) ;
#59 = ORIENTED_EDGE ( 'NONE', *, *, #138, .F. ) ;
#60 = ORGANIZATION ( 'NEURÈENÝ', 'NEURÈENÝ', '' ) ;
#61 = APPROVAL ( #274, 'NEURÈENÝ' ) ;
#62 = AXIS2_PLACEMENT_3D ( 'NONE', #4, #100, #149 ) ;
#63 = PERSON_AND_ORGANIZATION_ROLE ( 'design_owner' ) ;
#64 = EDGE_LOOP ( 'NONE', ( #111, #70, #291, #109 ) ) ;
#65 = VERTEX_POINT ( 'NONE', #225 ) ;
#66 = CARTESIAN_POINT ( 'NONE',  ( -5.000000000000000000, 0.000000000000000000, 5.199999999999982414 ) ) ;
#67 = LOCAL_TIME ( 14, 27, 46.00000000000000000, #119 ) ;
#68 = PERSON_AND_ORGANIZATION_ROLE ( 'design_supplier' ) ;
#69 = EDGE_CURVE ( 'NONE', #36, #205, #123, .T. ) ;
#70 = ORIENTED_EDGE ( 'NONE', *, *, #37, .T. ) ;
#71 = PERSON_AND_ORGANIZATION_ROLE ( 'creator' ) ;
#72 = LINE ( 'NONE', #233, #283 ) ;
#73 = CARTESIAN_POINT ( 'NONE',  ( 0.000000000000000000, 0.000000000000000000, 5.000000000000000000 ) ) ;
#74 = AXIS2_PLACEMENT_3D ( 'NONE', #97, #183, #92 ) ;
#75 = CLOSED_SHELL ( 'NONE', ( #129, #145, #239, #253, #273, #152, #13, #229, #19 ) ) ;
#76 = DIRECTION ( 'NONE',  ( 0.000000000000000000, 0.000000000000000000, -1.000000000000000000 ) ) ;
#77 = LOCAL_TIME ( 14, 27, 46.00000000000000000, #28 ) ;
#78 = CYLINDRICAL_SURFACE ( 'NONE', #210, 5.000000000000000000 ) ;
#79 = DIRECTION ( 'NONE',  ( 0.000000000000000000, 0.000000000000000000, 1.000000000000000000 ) ) ;
#80 = AXIS2_PLACEMENT_3D ( 'NONE', #156, #301, #158 ) ;
#81 = DIRECTION ( 'NONE',  ( -0.000000000000000000, -0.000000000000000000, -1.000000000000000000 ) ) ;
#82 = CC_DESIGN_PERSON_AND_ORGANIZATION_ASSIGNMENT ( #227, #63, ( #288 ) ) ;
#83 = AXIS2_PLACEMENT_3D ( 'NONE', #211, #188, #169 ) ;
#84 = VERTEX_POINT ( 'NONE', #122 ) ;
#85 = DESIGN_CONTEXT ( 'detailed design', #132, 'design' ) ;
#86 = CIRCLE ( 'NONE', #74, 8.000000000000000000 ) ;
#87 = MANIFOLD_SOLID_BREP ( 'Zaoblit1', #75 ) ;
#88 = CALENDAR_DATE ( 2022, 7, 7 ) ;
#89 = CARTESIAN_POINT ( 'NONE',  ( 0.000000000000000000, 0.000000000000000000, 5.199999999999982414 ) ) ;
#90 = CC_DESIGN_APPROVAL ( #58, ( #270 ) ) ;
#91 = CARTESIAN_POINT ( 'NONE',  ( 0.000000000000000000, 0.000000000000000000, 5.000000000000000000 ) ) ;
#92 = DIRECTION ( 'NONE',  ( 1.000000000000000000, 0.000000000000000000, 0.000000000000000000 ) ) ;
#93 = APPLICATION_PROTOCOL_DEFINITION ( 'international standard', 'config_control_design', 1994, #132 ) ;
#94 = EDGE_LOOP ( 'NONE', ( #59, #190, #172, #15 ) ) ;
#95 = CC_DESIGN_PERSON_AND_ORGANIZATION_ASSIGNMENT ( #180, #68, ( #38 ) ) ;
#96 = CIRCLE ( 'NONE', #116, 5.000000000000000000 ) ;
#97 = CARTESIAN_POINT ( 'NONE',  ( 0.000000000000000000, 0.000000000000000000, 0.000000000000000000 ) ) ;
#98 = DIRECTION ( 'NONE',  ( -0.000000000000000000, -0.000000000000000000, -1.000000000000000000 ) ) ;
#99 = LINE ( 'NONE', #34, #297 ) ;
#100 = DIRECTION ( 'NONE',  ( -0.000000000000000000, -0.000000000000000000, -1.000000000000000000 ) ) ;
#101 = CARTESIAN_POINT ( 'NONE',  ( 0.000000000000000000, 0.000000000000000000, 0.000000000000000000 ) ) ;
#102 = ADVANCED_BREP_SHAPE_REPRESENTATION ( 'd9f0', ( #87, #106 ), #170 ) ;
#103 = EDGE_CURVE ( 'NONE', #205, #36, #264, .T. ) ;
#104 = FACE_OUTER_BOUND ( 'NONE', #275, .T. ) ;
#105 = AXIS2_PLACEMENT_3D ( 'NONE', #306, #228, #46 ) ;
#106 = AXIS2_PLACEMENT_3D ( 'NONE', #121, #143, #41 ) ;
#107 = ORIENTED_EDGE ( 'NONE', *, *, #138, .T. ) ;
#108 = EDGE_CURVE ( 'NONE', #10, #118, #136, .T. ) ;
#109 = ORIENTED_EDGE ( 'NONE', *, *, #293, .F. ) ;
#110 = ORIENTED_EDGE ( 'NONE', *, *, #174, .F. ) ;
#111 = ORIENTED_EDGE ( 'NONE', *, *, #108, .F. ) ;
#112 = DATE_TIME_ROLE ( 'creation_date' ) ;
#113 = VERTEX_POINT ( 'NONE', #255 ) ;
#114 = APPLICATION_CONTEXT ( 'configuration controlled 3d designs of mechanical parts and assemblies' ) ;
#115 = DIRECTION ( 'NONE',  ( 0.000000000000000000, 0.000000000000000000, 1.000000000000000000 ) ) ;
#116 = AXIS2_PLACEMENT_3D ( 'NONE', #287, #260, #208 ) ;
#117 = DATE_AND_TIME ( #88, #44 ) ;
#118 = VERTEX_POINT ( 'NONE', #47 ) ;
#119 = COORDINATED_UNIVERSAL_TIME_OFFSET ( 1, 0, .AHEAD. ) ;
#120 = DIRECTION ( 'NONE',  ( 0.000000000000000000, 0.000000000000000000, 1.000000000000000000 ) ) ;
#121 = CARTESIAN_POINT ( 'NONE',  ( 0.000000000000000000, 0.000000000000000000, 0.000000000000000000 ) ) ;
#122 = CARTESIAN_POINT ( 'NONE',  ( 8.000000000000000000, 9.797174393178825657E-16, 5.000000000000000000 ) ) ;
#123 = CIRCLE ( 'NONE', #12, 5.000000000000000000 ) ;
#124 = CC_DESIGN_APPROVAL ( #61, ( #38 ) ) ;
#125 = APPROVAL ( #224, 'NEURÈENÝ' ) ;
#126 = DIRECTION ( 'NONE',  ( 0.000000000000000000, 0.000000000000000000, 1.000000000000000000 ) ) ;
#127 = CYLINDRICAL_SURFACE ( 'NONE', #62, 8.000000000000000000 ) ;
#128 = CARTESIAN_POINT ( 'NONE',  ( -5.000000000000000000, 0.000000000000000000, 320.0000000000000000 ) ) ;
#129 = ADVANCED_FACE ( 'NONE', ( #163 ), #8, .F. ) ;
#130 = LINE ( 'NONE', #212, #279 ) ;
#131 =( NAMED_UNIT ( * ) PLANE_ANGLE_UNIT ( ) SI_UNIT ( $, .RADIAN. ) );
#132 = APPLICATION_CONTEXT ( 'configuration controlled 3d designs of mechanical parts and assemblies' ) ;
#133 = EDGE_LOOP ( 'NONE', ( #268, #245, #294, #271 ) ) ;
#134 = AXIS2_PLACEMENT_3D ( 'NONE', #235, #32, #266 ) ;
#135 = ORIENTED_EDGE ( 'NONE', *, *, #220, .F. ) ;
#136 = CIRCLE ( 'NONE', #289, 5.000000000000000000 ) ;
#137 = AXIS2_PLACEMENT_3D ( 'NONE', #73, #7, #184 ) ;
#138 = EDGE_CURVE ( 'NONE', #205, #118, #72, .T. ) ;
#139 = MECHANICAL_CONTEXT ( 'NONE', #114, 'mechanical' ) ;
#140 = APPROVAL_DATE_TIME ( #117, #125 ) ;
#141 = DIRECTION ( 'NONE',  ( 0.000000000000000000, 0.000000000000000000, 1.000000000000000000 ) ) ;
#142 = LOCAL_TIME ( 14, 27, 46.00000000000000000, #204 ) ;
#143 = DIRECTION ( 'NONE',  ( 0.000000000000000000, 0.000000000000000000, 1.000000000000000000 ) ) ;
#144 = CARTESIAN_POINT ( 'NONE',  ( 0.000000000000000000, 0.000000000000000000, 5.199999999999982414 ) ) ;
#145 = ADVANCED_FACE ( 'NONE', ( #166 ), #78, .T. ) ;
#146 = DATE_AND_TIME ( #48, #77 ) ;
#147 = EDGE_LOOP ( 'NONE', ( #219, #42, #192, #217 ) ) ;
#148 = AXIS2_PLACEMENT_3D ( 'NONE', #153, #50, #53 ) ;
#149 = DIRECTION ( 'NONE',  ( -1.000000000000000000, 0.000000000000000000, 0.000000000000000000 ) ) ;
#150 = FACE_OUTER_BOUND ( 'NONE', #251, .T. ) ;
#151 = PLANE ( 'NONE',  #148 ) ;
#152 = ADVANCED_FACE ( 'NONE', ( #3 ), #57, .F. ) ;
#153 = CARTESIAN_POINT ( 'NONE',  ( 0.000000000000000000, 0.000000000000000000, 320.0000000000000000 ) ) ;
#154 = CARTESIAN_POINT ( 'NONE',  ( 0.000000000000000000, 0.000000000000000000, 5.000000000000000000 ) ) ;
#155 = VERTEX_POINT ( 'NONE', #33 ) ;
#156 = CARTESIAN_POINT ( 'NONE',  ( -5.200000000000000178, 6.368163355566236381E-16, 5.199999999999982414 ) ) ;
#157 = EDGE_CURVE ( 'NONE', #29, #215, #14, .T. ) ;
#158 = DIRECTION ( 'NONE',  ( -1.000000000000000000, 1.224646799147353454E-16, 0.000000000000000000 ) ) ;
#159 = PRODUCT_RELATED_PRODUCT_CATEGORY ( 'detail', '', ( #288 ) ) ;
#160 = ORIENTED_EDGE ( 'NONE', *, *, #157, .T. ) ;
#161 = FACE_OUTER_BOUND ( 'NONE', #254, .T. ) ;
#162 = APPROVAL_STATUS ( 'not_yet_approved' ) ;
#163 = FACE_OUTER_BOUND ( 'NONE', #64, .T. ) ;
#164 = FACE_OUTER_BOUND ( 'NONE', #133, .T. ) ;
#165 = VECTOR ( 'NONE', #98, 1000.000000000000000 ) ;
#166 = FACE_OUTER_BOUND ( 'NONE', #39, .T. ) ;
#167 = EDGE_CURVE ( 'NONE', #84, #65, #261, .T. ) ;
#168 = DIRECTION ( 'NONE',  ( -0.000000000000000000, -0.000000000000000000, -1.000000000000000000 ) ) ;
#169 = DIRECTION ( 'NONE',  ( 1.000000000000000000, 0.000000000000000000, 0.000000000000000000 ) ) ;
#170 =( GEOMETRIC_REPRESENTATION_CONTEXT ( 3 ) GLOBAL_UNCERTAINTY_ASSIGNED_CONTEXT ( ( #187 ) ) GLOBAL_UNIT_ASSIGNED_CONTEXT ( ( #207, #131, #244 ) ) REPRESENTATION_CONTEXT ( 'NONE', 'WORKASPACE' ) );
#171 = EDGE_CURVE ( 'NONE', #36, #10, #209, .T. ) ;
#172 = ORIENTED_EDGE ( 'NONE', *, *, #171, .T. ) ;
#173 = APPROVAL_PERSON_ORGANIZATION ( #257, #58, #232 ) ;
#174 = EDGE_CURVE ( 'NONE', #215, #29, #307, .T. ) ;
#175 = TOROIDAL_SURFACE ( 'NONE', #203, 5.200000000000000178, 0.2000000000000000111 ) ;
#176 = ORIENTED_EDGE ( 'NONE', *, *, #267, .F. ) ;
#177 = FACE_OUTER_BOUND ( 'NONE', #94, .T. ) ;
#178 = CALENDAR_DATE ( 2022, 7, 7 ) ;
#179 = DIRECTION ( 'NONE',  ( 0.000000000000000000, 0.000000000000000000, 1.000000000000000000 ) ) ;
#180 = PERSON_AND_ORGANIZATION ( #194, #60 ) ;
#181 = ORIENTED_EDGE ( 'NONE', *, *, #103, .T. ) ;
#182 = CC_DESIGN_APPROVAL ( #125, ( #56 ) ) ;
#183 = DIRECTION ( 'NONE',  ( 0.000000000000000000, 0.000000000000000000, 1.000000000000000000 ) ) ;
#184 = DIRECTION ( 'NONE',  ( 1.000000000000000000, 0.000000000000000000, 0.000000000000000000 ) ) ;
#185 = DIRECTION ( 'NONE',  ( 1.000000000000000000, 0.000000000000000000, 0.000000000000000000 ) ) ;
#186 = DIRECTION ( 'NONE',  ( 0.000000000000000000, 0.000000000000000000, 1.000000000000000000 ) ) ;
#187 = UNCERTAINTY_MEASURE_WITH_UNIT (LENGTH_MEASURE( 1.000000000000000082E-05 ), #207, 'distance_accuracy_value', 'NONE');
#188 = DIRECTION ( 'NONE',  ( -0.000000000000000000, -0.000000000000000000, -1.000000000000000000 ) ) ;
#189 = CARTESIAN_POINT ( 'NONE',  ( 5.200000000000000178, 0.000000000000000000, 5.199999999999982414 ) ) ;
#190 = ORIENTED_EDGE ( 'NONE', *, *, #69, .F. ) ;
#191 = CIRCLE ( 'NONE', #30, 0.1999999999999996503 ) ;
#192 = ORIENTED_EDGE ( 'NONE', *, *, #267, .T. ) ;
#193 = ORIENTED_EDGE ( 'NONE', *, *, #103, .F. ) ;
#194 = PERSON ( 'NEURÈENÝ', 'NEURÈENÝ', 'NEURÈENÝ', ('NEURÈENÝ'), ('NEURÈENÝ'), ('NEURÈENÝ') ) ;
#195 = CALENDAR_DATE ( 2022, 7, 7 ) ;
#196 = CC_DESIGN_PERSON_AND_ORGANIZATION_ASSIGNMENT ( #201, #71, ( #38 ) ) ;
#197 = DIRECTION ( 'NONE',  ( -0.000000000000000000, -0.000000000000000000, -1.000000000000000000 ) ) ;
#198 = CARTESIAN_POINT ( 'NONE',  ( 0.000000000000000000, 0.000000000000000000, 5.199999999999982414 ) ) ;
#199 = PERSON_AND_ORGANIZATION ( #194, #60 ) ;
#200 = ORIENTED_EDGE ( 'NONE', *, *, #171, .F. ) ;
#201 = PERSON_AND_ORGANIZATION ( #194, #60 ) ;
#202 = DIRECTION ( 'NONE',  ( 0.000000000000000000, 0.000000000000000000, 1.000000000000000000 ) ) ;
#203 = AXIS2_PLACEMENT_3D ( 'NONE', #89, #115, #281 ) ;
#204 = COORDINATED_UNIVERSAL_TIME_OFFSET ( 1, 0, .AHEAD. ) ;
#205 = VERTEX_POINT ( 'NONE', #55 ) ;
#206 = APPROVAL_PERSON_ORGANIZATION ( #18, #61, #23 ) ;
#207 =( LENGTH_UNIT ( ) NAMED_UNIT ( * ) SI_UNIT ( .MILLI., .METRE. ) );
#208 = DIRECTION ( 'NONE',  ( 1.000000000000000000, 0.000000000000000000, 0.000000000000000000 ) ) ;
#209 = LINE ( 'NONE', #128, #165 ) ;
#210 = AXIS2_PLACEMENT_3D ( 'NONE', #31, #2, #282 ) ;
#211 = CARTESIAN_POINT ( 'NONE',  ( 0.000000000000000000, 0.000000000000000000, 5.000000000000000000 ) ) ;
#212 = CARTESIAN_POINT ( 'NONE',  ( -8.000000000000000000, 0.000000000000000000, 5.000000000000000000 ) ) ;
#213 = APPLICATION_PROTOCOL_DEFINITION ( 'international standard', 'config_control_design', 1994, #114 ) ;
#214 = LOCAL_TIME ( 14, 27, 46.00000000000000000, #305 ) ;
#215 = VERTEX_POINT ( 'NONE', #265 ) ;
#216 = ORIENTED_EDGE ( 'NONE', *, *, #69, .T. ) ;
#217 = ORIENTED_EDGE ( 'NONE', *, *, #299, .F. ) ;
#218 = AXIS2_PLACEMENT_3D ( 'NONE', #101, #79, #262 ) ;
#219 = ORIENTED_EDGE ( 'NONE', *, *, #167, .F. ) ;
#220 = EDGE_CURVE ( 'NONE', #118, #10, #96, .T. ) ;
#221 = DATE_AND_TIME ( #277, #67 ) ;
#222 = ORIENTED_EDGE ( 'NONE', *, *, #52, .F. ) ;
#223 = CARTESIAN_POINT ( 'NONE',  ( -5.000000000000000000, 0.000000000000000000, 320.0000000000000000 ) ) ;
#224 = APPROVAL_STATUS ( 'not_yet_approved' ) ;
#225 = CARTESIAN_POINT ( 'NONE',  ( -8.000000000000000000, 0.000000000000000000, 5.000000000000000000 ) ) ;
#226 = AXIS2_PLACEMENT_3D ( 'NONE', #154, #168, #6 ) ;
#227 = PERSON_AND_ORGANIZATION ( #194, #60 ) ;
#228 = DIRECTION ( 'NONE',  ( -0.000000000000000000, -0.000000000000000000, -1.000000000000000000 ) ) ;
#229 = ADVANCED_FACE ( 'NONE', ( #150 ), #151, .T. ) ;
#230 = SECURITY_CLASSIFICATION_LEVEL ( 'unclassified' ) ;
#231 = ORIENTED_EDGE ( 'NONE', *, *, #37, .F. ) ;
#232 = APPROVAL_ROLE ( '' ) ;
#233 = CARTESIAN_POINT ( 'NONE',  ( 5.000000000000000000, 6.123233995736766282E-16, 320.0000000000000000 ) ) ;
#234 = CYLINDRICAL_SURFACE ( 'NONE', #134, 8.000000000000000000 ) ;
#235 = CARTESIAN_POINT ( 'NONE',  ( 0.000000000000000000, 0.000000000000000000, 5.000000000000000000 ) ) ;
#236 = PLANE ( 'NONE',  #51 ) ;
#237 = DIRECTION ( 'NONE',  ( 1.000000000000000000, 0.000000000000000000, -0.000000000000000000 ) ) ;
#238 = PRODUCT_DEFINITION_SHAPE ( 'NONE', 'NONE',  #56 ) ;
#239 = ADVANCED_FACE ( 'NONE', ( #240 ), #234, .T. ) ;
#240 = FACE_OUTER_BOUND ( 'NONE', #147, .T. ) ;
#241 = AXIS2_PLACEMENT_3D ( 'NONE', #198, #141, #20 ) ;
#242 = CIRCLE ( 'NONE', #80, 0.1999999999999996503 ) ;
#243 = EDGE_CURVE ( 'NONE', #84, #155, #99, .T. ) ;
#244 =( NAMED_UNIT ( * ) SI_UNIT ( $, .STERADIAN. ) SOLID_ANGLE_UNIT ( ) );
#245 = ORIENTED_EDGE ( 'NONE', *, *, #5, .F. ) ;
#246 = AXIS2_PLACEMENT_3D ( 'NONE', #250, #179, #40 ) ;
#247 = CC_DESIGN_DATE_AND_TIME_ASSIGNMENT ( #45, #112, ( #56 ) ) ;
#248 = AXIS2_PLACEMENT_3D ( 'NONE', #54, #126, #185 ) ;
#249 = DATE_TIME_ROLE ( 'classification_date' ) ;
#250 = CARTESIAN_POINT ( 'NONE',  ( 0.000000000000000000, 0.000000000000000000, 320.0000000000000000 ) ) ;
#251 = EDGE_LOOP ( 'NONE', ( #216, #181 ) ) ;
#252 = COORDINATED_UNIVERSAL_TIME_OFFSET ( 1, 0, .AHEAD. ) ;
#253 = ADVANCED_FACE ( 'NONE', ( #164 ), #127, .T. ) ;
#254 = EDGE_LOOP ( 'NONE', ( #231, #135, #269, #110 ) ) ;
#255 = CARTESIAN_POINT ( 'NONE',  ( -8.000000000000000000, 0.000000000000000000, 0.000000000000000000 ) ) ;
#256 = CC_DESIGN_DATE_AND_TIME_ASSIGNMENT ( #295, #249, ( #270 ) ) ;
#257 = PERSON_AND_ORGANIZATION ( #194, #60 ) ;
#258 = DIRECTION ( 'NONE',  ( 1.000000000000000000, 0.000000000000000000, 0.000000000000000000 ) ) ;
#259 = APPROVAL_DATE_TIME ( #146, #58 ) ;
#260 = DIRECTION ( 'NONE',  ( 0.000000000000000000, 0.000000000000000000, 1.000000000000000000 ) ) ;
#261 = CIRCLE ( 'NONE', #137, 8.000000000000000000 ) ;
#262 = DIRECTION ( 'NONE',  ( 1.000000000000000000, 0.000000000000000000, -0.000000000000000000 ) ) ;
#263 = DIRECTION ( 'NONE',  ( -0.000000000000000000, -0.000000000000000000, -1.000000000000000000 ) ) ;
#264 = CIRCLE ( 'NONE', #246, 5.000000000000000000 ) ;
#265 = CARTESIAN_POINT ( 'NONE',  ( -5.200000000000000178, 6.368163355566236381E-16, 4.999999999999991118 ) ) ;
#266 = DIRECTION ( 'NONE',  ( -1.000000000000000000, 0.000000000000000000, 0.000000000000000000 ) ) ;
#267 = EDGE_CURVE ( 'NONE', #155, #113, #9, .T. ) ;
#268 = ORIENTED_EDGE ( 'NONE', *, *, #243, .F. ) ;
#269 = ORIENTED_EDGE ( 'NONE', *, *, #293, .T. ) ;
#270 = SECURITY_CLASSIFICATION ( '', '', #230 ) ;
#271 = ORIENTED_EDGE ( 'NONE', *, *, #52, .T. ) ;
#272 = DIRECTION ( 'NONE',  ( 0.000000000000000000, 0.000000000000000000, 1.000000000000000000 ) ) ;
#273 = ADVANCED_FACE ( 'NONE', ( #284, #104 ), #236, .T. ) ;
#274 = APPROVAL_STATUS ( 'not_yet_approved' ) ;
#275 = EDGE_LOOP ( 'NONE', ( #292, #11 ) ) ;
#276 = AXIS2_PLACEMENT_3D ( 'NONE', #91, #272, #258 ) ;
#277 = CALENDAR_DATE ( 2022, 7, 7 ) ;
#278 = DIRECTION ( 'NONE',  ( 1.000000000000000000, 0.000000000000000000, 0.000000000000000000 ) ) ;
#279 = VECTOR ( 'NONE', #81, 1000.000000000000000 ) ;
#280 = PERSON_AND_ORGANIZATION ( #194, #60 ) ;
#281 = DIRECTION ( 'NONE',  ( 1.000000000000000000, 0.000000000000000000, 0.000000000000000000 ) ) ;
#282 = DIRECTION ( 'NONE',  ( -1.000000000000000000, 0.000000000000000000, 0.000000000000000000 ) ) ;
#283 = VECTOR ( 'NONE', #197, 1000.000000000000000 ) ;
#284 = FACE_BOUND ( 'NONE', #303, .T. ) ;
#285 = APPROVAL_PERSON_ORGANIZATION ( #302, #125, #21 ) ;
#286 = CARTESIAN_POINT ( 'NONE',  ( 0.000000000000000000, 0.000000000000000000, 5.000000000000000000 ) ) ;
#287 = CARTESIAN_POINT ( 'NONE',  ( 0.000000000000000000, 0.000000000000000000, 5.199999999999982414 ) ) ;
#288 = PRODUCT ( 'd9f0', 'd9f0', '', ( #139 ) ) ;
#289 = AXIS2_PLACEMENT_3D ( 'NONE', #144, #202, #278 ) ;
#290 = DIRECTION ( 'NONE',  ( 0.000000000000000000, -1.000000000000000000, 0.000000000000000000 ) ) ;
#291 = ORIENTED_EDGE ( 'NONE', *, *, #157, .F. ) ;
#292 = ORIENTED_EDGE ( 'NONE', *, *, #5, .T. ) ;
#293 = EDGE_CURVE ( 'NONE', #118, #29, #191, .T. ) ;
#294 = ORIENTED_EDGE ( 'NONE', *, *, #299, .T. ) ;
#295 = DATE_AND_TIME ( #195, #214 ) ;
#296 = ORIENTED_EDGE ( 'NONE', *, *, #220, .T. ) ;
#297 = VECTOR ( 'NONE', #263, 1000.000000000000000 ) ;
#298 = CARTESIAN_POINT ( 'NONE',  ( 0.000000000000000000, 0.000000000000000000, 320.0000000000000000 ) ) ;
#299 = EDGE_CURVE ( 'NONE', #65, #113, #130, .T. ) ;
#300 = PERSON_AND_ORGANIZATION_ROLE ( 'creator' ) ;
#301 = DIRECTION ( 'NONE',  ( 1.224646799147353207E-16, 1.000000000000000000, -0.000000000000000000 ) ) ;
#302 = PERSON_AND_ORGANIZATION ( #194, #60 ) ;
#303 = EDGE_LOOP ( 'NONE', ( #160, #17 ) ) ;
#304 = CC_DESIGN_PERSON_AND_ORGANIZATION_ASSIGNMENT ( #199, #300, ( #56 ) ) ;
#305 = COORDINATED_UNIVERSAL_TIME_OFFSET ( 1, 0, .AHEAD. ) ;
#306 = CARTESIAN_POINT ( 'NONE',  ( 0.000000000000000000, 0.000000000000000000, 320.0000000000000000 ) ) ;
#307 = CIRCLE ( 'NONE', #83, 5.200000000000000178 ) ;
ENDSEC;
END-ISO-10303-21;
