ISO-10303-21;
HEADER;
FILE_DESCRIPTION (( 'STEP AP203' ),
    '1' );
FILE_NAME ('1813.STEP',
    '2022-07-07T12:44:47',
    ( '' ),
    ( '' ),
    'SwSTEP 2.0',
    'SolidWorks 2019',
    '' );
FILE_SCHEMA (( 'CONFIG_CONTROL_DESIGN' ));
ENDSEC;

DATA;
#1 = AXIS2_PLACEMENT_3D ( 'NONE', #73, #301, #70 ) ;
#2 = PERSON_AND_ORGANIZATION_ROLE ( 'classification_officer' ) ;
#3 = VERTEX_POINT ( 'NONE', #127 ) ;
#4 = ADVANCED_FACE ( 'NONE', ( #165 ), #41, .F. ) ;
#5 = DIRECTION ( 'NONE',  ( -0.000000000000000000, -0.000000000000000000, -1.000000000000000000 ) ) ;
#6 = DIRECTION ( 'NONE',  ( -0.000000000000000000, -0.000000000000000000, -1.000000000000000000 ) ) ;
#7 = ADVANCED_BREP_SHAPE_REPRESENTATION ( '1813', ( #39, #287 ), #44 ) ;
#8 = DIRECTION ( 'NONE',  ( 1.000000000000000000, 0.000000000000000000, -0.000000000000000000 ) ) ;
#9 = EDGE_CURVE ( 'NONE', #123, #161, #32, .T. ) ;
#10 = DIRECTION ( 'NONE',  ( -0.000000000000000000, -0.000000000000000000, -1.000000000000000000 ) ) ;
#11 = CARTESIAN_POINT ( 'NONE',  ( -2.799999999999999822, 3.429011037612588783E-16, 3.200000000000008171 ) ) ;
#12 = CLOSED_SHELL ( 'NONE', ( #118, #179, #304, #284, #258, #195, #81, #217, #4 ) ) ;
#13 = DIRECTION ( 'NONE',  ( 1.000000000000000000, 0.000000000000000000, 0.000000000000000000 ) ) ;
#14 = AXIS2_PLACEMENT_3D ( 'NONE', #192, #288, #83 ) ;
#15 = EDGE_CURVE ( 'NONE', #123, #222, #201, .T. ) ;
#16 = PERSON_AND_ORGANIZATION ( #185, #164 ) ;
#17 = EDGE_LOOP ( 'NONE', ( #271, #299, #78, #146 ) ) ;
#18 = PRODUCT ( '1813', '1813', '', ( #89 ) ) ;
#19 = COORDINATED_UNIVERSAL_TIME_OFFSET ( 1, 0, .AHEAD. ) ;
#20 = DIRECTION ( 'NONE',  ( -0.000000000000000000, -0.000000000000000000, -1.000000000000000000 ) ) ;
#21 = DATE_AND_TIME ( #45, #85 ) ;
#22 = AXIS2_PLACEMENT_3D ( 'NONE', #79, #262, #59 ) ;
#23 = CC_DESIGN_PERSON_AND_ORGANIZATION_ASSIGNMENT ( #225, #159, ( #183 ) ) ;
#24 = SECURITY_CLASSIFICATION ( '', '', #282 ) ;
#25 = EDGE_LOOP ( 'NONE', ( #233, #189, #250, #260 ) ) ;
#26 = ORIENTED_EDGE ( 'NONE', *, *, #130, .F. ) ;
#27 = PERSON_AND_ORGANIZATION_ROLE ( 'creator' ) ;
#28 = EDGE_CURVE ( 'NONE', #161, #166, #244, .T. ) ;
#29 = ORIENTED_EDGE ( 'NONE', *, *, #51, .F. ) ;
#30 = AXIS2_PLACEMENT_3D ( 'NONE', #303, #204, #96 ) ;
#31 = APPROVAL_PERSON_ORGANIZATION ( #50, #87, #144 ) ;
#32 = LINE ( 'NONE', #278, #114 ) ;
#33 = CARTESIAN_POINT ( 'NONE',  ( 0.000000000000000000, 0.000000000000000000, 3.200000000000008171 ) ) ;
#34 = DIRECTION ( 'NONE',  ( 0.000000000000000000, 0.000000000000000000, -1.000000000000000000 ) ) ;
#35 = EDGE_CURVE ( 'NONE', #166, #161, #181, .T. ) ;
#36 = CIRCLE ( 'NONE', #224, 2.600000000000000089 ) ;
#37 = DIRECTION ( 'NONE',  ( 1.000000000000000000, 0.000000000000000000, 0.000000000000000000 ) ) ;
#38 = DIRECTION ( 'NONE',  ( -1.000000000000000000, 0.000000000000000000, 0.000000000000000000 ) ) ;
#39 = MANIFOLD_SOLID_BREP ( 'Zaoblit1', #12 ) ;
#40 = CARTESIAN_POINT ( 'NONE',  ( 5.000000000000000000, 6.123233995736766282E-16, 0.000000000000000000 ) ) ;
#41 = TOROIDAL_SURFACE ( 'NONE', #279, 2.799999999999999822, 0.2000000000000000111 ) ;
#42 = CARTESIAN_POINT ( 'NONE',  ( 0.000000000000000000, 0.000000000000000000, 3.200000000000008171 ) ) ;
#43 = CC_DESIGN_PERSON_AND_ORGANIZATION_ASSIGNMENT ( #229, #259, ( #115 ) ) ;
#44 =( GEOMETRIC_REPRESENTATION_CONTEXT ( 3 ) GLOBAL_UNCERTAINTY_ASSIGNED_CONTEXT ( ( #297 ) ) GLOBAL_UNIT_ASSIGNED_CONTEXT ( ( #47, #116, #160 ) ) REPRESENTATION_CONTEXT ( 'NONE', 'WORKASPACE' ) );
#45 = CALENDAR_DATE ( 2022, 7, 7 ) ;
#46 = ORIENTED_EDGE ( 'NONE', *, *, #208, .T. ) ;
#47 =( LENGTH_UNIT ( ) NAMED_UNIT ( * ) SI_UNIT ( .MILLI., .METRE. ) );
#48 = APPROVAL_DATE_TIME ( #49, #139 ) ;
#49 = DATE_AND_TIME ( #112, #121 ) ;
#50 = PERSON_AND_ORGANIZATION ( #185, #164 ) ;
#51 = EDGE_CURVE ( 'NONE', #3, #68, #307, .T. ) ;
#52 = ORIENTED_EDGE ( 'NONE', *, *, #35, .F. ) ;
#53 = CC_DESIGN_SECURITY_CLASSIFICATION ( #24, ( #115 ) ) ;
#54 = ORIENTED_EDGE ( 'NONE', *, *, #15, .T. ) ;
#55 = ORIENTED_EDGE ( 'NONE', *, *, #253, .T. ) ;
#56 = COORDINATED_UNIVERSAL_TIME_OFFSET ( 1, 0, .AHEAD. ) ;
#57 = VERTEX_POINT ( 'NONE', #231 ) ;
#58 = LOCAL_TIME ( 14, 44, 47.00000000000000000, #176 ) ;
#59 = DIRECTION ( 'NONE',  ( 1.000000000000000000, 0.000000000000000000, 0.000000000000000000 ) ) ;
#60 = CARTESIAN_POINT ( 'NONE',  ( 0.000000000000000000, 0.000000000000000000, 253.0000000000000000 ) ) ;
#61 = CARTESIAN_POINT ( 'NONE',  ( 0.000000000000000000, 0.000000000000000000, 253.0000000000000000 ) ) ;
#62 = CIRCLE ( 'NONE', #105, 0.2000000000000000944 ) ;
#63 = CARTESIAN_POINT ( 'NONE',  ( 0.000000000000000000, 0.000000000000000000, 0.000000000000000000 ) ) ;
#64 = EDGE_CURVE ( 'NONE', #222, #166, #75, .T. ) ;
#65 = CARTESIAN_POINT ( 'NONE',  ( 0.000000000000000000, 0.000000000000000000, 253.0000000000000000 ) ) ;
#66 = CARTESIAN_POINT ( 'NONE',  ( 2.799999999999999822, 0.000000000000000000, 3.200000000000008171 ) ) ;
#67 = APPLICATION_PROTOCOL_DEFINITION ( 'international standard', 'config_control_design', 1994, #117 ) ;
#68 = VERTEX_POINT ( 'NONE', #187 ) ;
#69 = CALENDAR_DATE ( 2022, 7, 7 ) ;
#70 = DIRECTION ( 'NONE',  ( -1.000000000000000000, 0.000000000000000000, 0.000000000000000000 ) ) ;
#71 = CYLINDRICAL_SURFACE ( 'NONE', #1, 5.000000000000000000 ) ;
#72 = AXIS2_PLACEMENT_3D ( 'NONE', #63, #237, #171 ) ;
#73 = CARTESIAN_POINT ( 'NONE',  ( 0.000000000000000000, 0.000000000000000000, 3.000000000000000000 ) ) ;
#74 = CARTESIAN_POINT ( 'NONE',  ( 2.600000000000000089, 3.184081677783118191E-16, 253.0000000000000000 ) ) ;
#75 = LINE ( 'NONE', #98, #141 ) ;
#76 = VERTEX_POINT ( 'NONE', #151 ) ;
#77 = PERSON_AND_ORGANIZATION ( #185, #164 ) ;
#78 = ORIENTED_EDGE ( 'NONE', *, *, #9, .T. ) ;
#79 = CARTESIAN_POINT ( 'NONE',  ( 0.000000000000000000, 0.000000000000000000, 3.000000000000000000 ) ) ;
#80 = AXIS2_PLACEMENT_3D ( 'NONE', #152, #82, #286 ) ;
#81 = ADVANCED_FACE ( 'NONE', ( #155 ), #243, .T. ) ;
#82 = DIRECTION ( 'NONE',  ( 0.000000000000000000, 0.000000000000000000, 1.000000000000000000 ) ) ;
#83 = DIRECTION ( 'NONE',  ( 1.000000000000000000, 0.000000000000000000, -0.000000000000000000 ) ) ;
#84 = DIRECTION ( 'NONE',  ( -0.000000000000000000, -0.000000000000000000, -1.000000000000000000 ) ) ;
#85 = LOCAL_TIME ( 14, 44, 47.00000000000000000, #19 ) ;
#86 = PLANE ( 'NONE',  #14 ) ;
#87 = APPROVAL ( #206, 'NEURÈENÝ' ) ;
#88 = DIRECTION ( 'NONE',  ( -1.000000000000000000, 0.000000000000000000, 0.000000000000000000 ) ) ;
#89 = MECHANICAL_CONTEXT ( 'NONE', #140, 'mechanical' ) ;
#90 = EDGE_LOOP ( 'NONE', ( #102, #52 ) ) ;
#91 = DIRECTION ( 'NONE',  ( -1.000000000000000000, 0.000000000000000000, 0.000000000000000000 ) ) ;
#92 = DESIGN_CONTEXT ( 'detailed design', #117, 'design' ) ;
#93 = DIRECTION ( 'NONE',  ( 1.000000000000000000, 0.000000000000000000, 0.000000000000000000 ) ) ;
#94 = EDGE_CURVE ( 'NONE', #190, #3, #205, .T. ) ;
#95 = CIRCLE ( 'NONE', #296, 5.000000000000000000 ) ;
#96 = DIRECTION ( 'NONE',  ( 1.000000000000000000, 0.000000000000000000, 0.000000000000000000 ) ) ;
#97 = DIRECTION ( 'NONE',  ( 0.000000000000000000, 0.000000000000000000, 1.000000000000000000 ) ) ;
#98 = CARTESIAN_POINT ( 'NONE',  ( 5.000000000000000000, 6.123233995736766282E-16, 3.000000000000000000 ) ) ;
#99 = LOCAL_TIME ( 14, 44, 47.00000000000000000, #122 ) ;
#100 = PERSON_AND_ORGANIZATION ( #185, #164 ) ;
#101 = VERTEX_POINT ( 'NONE', #136 ) ;
#102 = ORIENTED_EDGE ( 'NONE', *, *, #28, .F. ) ;
#103 = VECTOR ( 'NONE', #145, 1000.000000000000000 ) ;
#104 = FACE_OUTER_BOUND ( 'NONE', #25, .T. ) ;
#105 = AXIS2_PLACEMENT_3D ( 'NONE', #66, #107, #34 ) ;
#106 = VECTOR ( 'NONE', #6, 1000.000000000000000 ) ;
#107 = DIRECTION ( 'NONE',  ( 0.000000000000000000, -1.000000000000000000, 0.000000000000000000 ) ) ;
#108 = CARTESIAN_POINT ( 'NONE',  ( -5.000000000000000000, 0.000000000000000000, 0.000000000000000000 ) ) ;
#109 = DIRECTION ( 'NONE',  ( 1.224646799147353207E-16, 1.000000000000000000, -0.000000000000000000 ) ) ;
#110 = CIRCLE ( 'NONE', #80, 2.600000000000000089 ) ;
#111 = FACE_OUTER_BOUND ( 'NONE', #90, .T. ) ;
#112 = CALENDAR_DATE ( 2022, 7, 7 ) ;
#113 = ORIENTED_EDGE ( 'NONE', *, *, #265, .F. ) ;
#114 = VECTOR ( 'NONE', #5, 1000.000000000000000 ) ;
#115 = PRODUCT_DEFINITION_FORMATION_WITH_SPECIFIED_SOURCE ( 'LIBOVOLNÝ', '', #18, .NOT_KNOWN. ) ;
#116 =( NAMED_UNIT ( * ) PLANE_ANGLE_UNIT ( ) SI_UNIT ( $, .RADIAN. ) );
#117 = APPLICATION_CONTEXT ( 'configuration controlled 3d designs of mechanical parts and assemblies' ) ;
#118 = ADVANCED_FACE ( 'NONE', ( #245 ), #212, .F. ) ;
#119 = DATE_TIME_ROLE ( 'creation_date' ) ;
#120 = CALENDAR_DATE ( 2022, 7, 7 ) ;
#121 = LOCAL_TIME ( 14, 44, 47.00000000000000000, #247 ) ;
#122 = COORDINATED_UNIVERSAL_TIME_OFFSET ( 1, 0, .AHEAD. ) ;
#123 = VERTEX_POINT ( 'NONE', #264 ) ;
#124 = ORIENTED_EDGE ( 'NONE', *, *, #130, .T. ) ;
#125 = CIRCLE ( 'NONE', #290, 2.600000000000000089 ) ;
#126 = DATE_AND_TIME ( #188, #99 ) ;
#127 = CARTESIAN_POINT ( 'NONE',  ( 2.600000000000000089, 3.184081677783118191E-16, 253.0000000000000000 ) ) ;
#128 = APPROVAL_PERSON_ORGANIZATION ( #251, #139, #158 ) ;
#129 = ORIENTED_EDGE ( 'NONE', *, *, #94, .T. ) ;
#130 = EDGE_CURVE ( 'NONE', #76, #68, #125, .T. ) ;
#131 = CARTESIAN_POINT ( 'NONE',  ( 0.000000000000000000, 0.000000000000000000, 0.000000000000000000 ) ) ;
#132 = AXIS2_PLACEMENT_3D ( 'NONE', #42, #191, #289 ) ;
#133 = CARTESIAN_POINT ( 'NONE',  ( -2.600000000000000089, 0.000000000000000000, 253.0000000000000000 ) ) ;
#134 = AXIS2_PLACEMENT_3D ( 'NONE', #215, #20, #180 ) ;
#135 = PLANE ( 'NONE',  #230 ) ;
#136 = CARTESIAN_POINT ( 'NONE',  ( -2.799999999999999822, 3.429011037612589276E-16, 3.000000000000004441 ) ) ;
#137 = PLANE ( 'NONE',  #72 ) ;
#138 = CYLINDRICAL_SURFACE ( 'NONE', #246, 5.000000000000000000 ) ;
#139 = APPROVAL ( #254, 'NEURÈENÝ' ) ;
#140 = APPLICATION_CONTEXT ( 'configuration controlled 3d designs of mechanical parts and assemblies' ) ;
#141 = VECTOR ( 'NONE', #232, 1000.000000000000000 ) ;
#142 = ORIENTED_EDGE ( 'NONE', *, *, #226, .F. ) ;
#143 = CARTESIAN_POINT ( 'NONE',  ( 0.000000000000000000, 0.000000000000000000, 3.000000000000000000 ) ) ;
#144 = APPROVAL_ROLE ( '' ) ;
#145 = DIRECTION ( 'NONE',  ( -0.000000000000000000, -0.000000000000000000, -1.000000000000000000 ) ) ;
#146 = ORIENTED_EDGE ( 'NONE', *, *, #28, .T. ) ;
#147 = EDGE_LOOP ( 'NONE', ( #26, #277, #113, #186 ) ) ;
#148 = ORIENTED_EDGE ( 'NONE', *, *, #94, .F. ) ;
#149 = AXIS2_PLACEMENT_3D ( 'NONE', #60, #10, #88 ) ;
#150 = EDGE_LOOP ( 'NONE', ( #184, #210 ) ) ;
#151 = CARTESIAN_POINT ( 'NONE',  ( -2.600000000000000089, 0.000000000000000000, 3.200000000000008171 ) ) ;
#152 = CARTESIAN_POINT ( 'NONE',  ( 0.000000000000000000, 0.000000000000000000, 3.200000000000008171 ) ) ;
#153 = CARTESIAN_POINT ( 'NONE',  ( 5.000000000000000000, 6.123233995736766282E-16, 3.000000000000000000 ) ) ;
#154 = DIRECTION ( 'NONE',  ( 1.000000000000000000, 0.000000000000000000, 0.000000000000000000 ) ) ;
#155 = FACE_OUTER_BOUND ( 'NONE', #207, .T. ) ;
#156 = EDGE_CURVE ( 'NONE', #68, #76, #110, .T. ) ;
#157 = APPROVAL_PERSON_ORGANIZATION ( #221, #213, #200 ) ;
#158 = APPROVAL_ROLE ( '' ) ;
#159 = PERSON_AND_ORGANIZATION_ROLE ( 'creator' ) ;
#160 =( NAMED_UNIT ( * ) SI_UNIT ( $, .STERADIAN. ) SOLID_ANGLE_UNIT ( ) );
#161 = VERTEX_POINT ( 'NONE', #108 ) ;
#162 = CC_DESIGN_PERSON_AND_ORGANIZATION_ASSIGNMENT ( #100, #27, ( #115 ) ) ;
#163 = EDGE_LOOP ( 'NONE', ( #129, #203 ) ) ;
#164 = ORGANIZATION ( 'NEURÈENÝ', 'NEURÈENÝ', '' ) ;
#165 = FACE_OUTER_BOUND ( 'NONE', #235, .T. ) ;
#166 = VERTEX_POINT ( 'NONE', #40 ) ;
#167 = ORIENTED_EDGE ( 'NONE', *, *, #64, .T. ) ;
#168 = CC_DESIGN_APPROVAL ( #139, ( #183 ) ) ;
#169 = CYLINDRICAL_SURFACE ( 'NONE', #149, 2.600000000000000089 ) ;
#170 = DIRECTION ( 'NONE',  ( 0.000000000000000000, 0.000000000000000000, 1.000000000000000000 ) ) ;
#171 = DIRECTION ( 'NONE',  ( 1.000000000000000000, 0.000000000000000000, -0.000000000000000000 ) ) ;
#172 = EDGE_CURVE ( 'NONE', #190, #76, #241, .T. ) ;
#173 = DIRECTION ( 'NONE',  ( 1.000000000000000000, 0.000000000000000000, 0.000000000000000000 ) ) ;
#174 = AXIS2_PLACEMENT_3D ( 'NONE', #65, #84, #38 ) ;
#175 = CIRCLE ( 'NONE', #134, 2.799999999999999822 ) ;
#176 = COORDINATED_UNIVERSAL_TIME_OFFSET ( 1, 0, .AHEAD. ) ;
#177 = PERSON_AND_ORGANIZATION_ROLE ( 'design_owner' ) ;
#178 = ORIENTED_EDGE ( 'NONE', *, *, #208, .F. ) ;
#179 = ADVANCED_FACE ( 'NONE', ( #104 ), #169, .T. ) ;
#180 = DIRECTION ( 'NONE',  ( 1.000000000000000000, 0.000000000000000000, 0.000000000000000000 ) ) ;
#181 = CIRCLE ( 'NONE', #30, 5.000000000000000000 ) ;
#182 = FACE_OUTER_BOUND ( 'NONE', #256, .T. ) ;
#183 = PRODUCT_DEFINITION ( 'NEZNÁMÝ', '', #115, #92 ) ;
#184 = ORIENTED_EDGE ( 'NONE', *, *, #265, .T. ) ;
#185 = PERSON ( 'NEURÈENÝ', 'NEURÈENÝ', 'NEURÈENÝ', ('NEURÈENÝ'), ('NEURÈENÝ'), ('NEURÈENÝ') ) ;
#186 = ORIENTED_EDGE ( 'NONE', *, *, #253, .F. ) ;
#187 = CARTESIAN_POINT ( 'NONE',  ( 2.600000000000000089, 3.184081677783118191E-16, 3.200000000000008171 ) ) ;
#188 = CALENDAR_DATE ( 2022, 7, 7 ) ;
#189 = ORIENTED_EDGE ( 'NONE', *, *, #51, .T. ) ;
#190 = VERTEX_POINT ( 'NONE', #133 ) ;
#191 = DIRECTION ( 'NONE',  ( 0.000000000000000000, 0.000000000000000000, 1.000000000000000000 ) ) ;
#192 = CARTESIAN_POINT ( 'NONE',  ( 0.000000000000000000, 0.000000000000000000, 3.000000000000000000 ) ) ;
#193 = FACE_BOUND ( 'NONE', #150, .T. ) ;
#194 = DIRECTION ( 'NONE',  ( 0.000000000000000000, 0.000000000000000000, 1.000000000000000000 ) ) ;
#195 = ADVANCED_FACE ( 'NONE', ( #111 ), #137, .F. ) ;
#196 = DIRECTION ( 'NONE',  ( 0.000000000000000000, 0.000000000000000000, 1.000000000000000000 ) ) ;
#197 = DIRECTION ( 'NONE',  ( -0.000000000000000000, -0.000000000000000000, -1.000000000000000000 ) ) ;
#198 = APPROVAL_STATUS ( 'not_yet_approved' ) ;
#199 = APPROVAL_DATE_TIME ( #249, #213 ) ;
#200 = APPROVAL_ROLE ( '' ) ;
#201 = CIRCLE ( 'NONE', #22, 5.000000000000000000 ) ;
#202 = ORIENTED_EDGE ( 'NONE', *, *, #274, .F. ) ;
#203 = ORIENTED_EDGE ( 'NONE', *, *, #294, .T. ) ;
#204 = DIRECTION ( 'NONE',  ( 0.000000000000000000, 0.000000000000000000, 1.000000000000000000 ) ) ;
#205 = CIRCLE ( 'NONE', #268, 2.600000000000000089 ) ;
#206 = APPROVAL_STATUS ( 'not_yet_approved' ) ;
#207 = EDGE_LOOP ( 'NONE', ( #29, #148, #273, #124 ) ) ;
#208 = EDGE_CURVE ( 'NONE', #222, #123, #95, .T. ) ;
#209 = CIRCLE ( 'NONE', #240, 2.799999999999999822 ) ;
#210 = ORIENTED_EDGE ( 'NONE', *, *, #274, .T. ) ;
#211 = CARTESIAN_POINT ( 'NONE',  ( -2.600000000000000089, 0.000000000000000000, 253.0000000000000000 ) ) ;
#212 = TOROIDAL_SURFACE ( 'NONE', #132, 2.799999999999999822, 0.2000000000000000111 ) ;
#213 = APPROVAL ( #198, 'NEURÈENÝ' ) ;
#214 = FACE_OUTER_BOUND ( 'NONE', #261, .T. ) ;
#215 = CARTESIAN_POINT ( 'NONE',  ( 0.000000000000000000, 0.000000000000000000, 3.000000000000000000 ) ) ;
#216 = CARTESIAN_POINT ( 'NONE',  ( 0.000000000000000000, 0.000000000000000000, 3.200000000000008171 ) ) ;
#217 = ADVANCED_FACE ( 'NONE', ( #293 ), #135, .T. ) ;
#218 = DIRECTION ( 'NONE',  ( -1.000000000000000000, 1.224646799147353207E-16, 0.000000000000000000 ) ) ;
#219 = CC_DESIGN_APPROVAL ( #87, ( #24 ) ) ;
#220 = PRODUCT_DEFINITION_SHAPE ( 'NONE', 'NONE',  #183 ) ;
#221 = PERSON_AND_ORGANIZATION ( #185, #164 ) ;
#222 = VERTEX_POINT ( 'NONE', #153 ) ;
#223 = CARTESIAN_POINT ( 'NONE',  ( 0.000000000000000000, 0.000000000000000000, 253.0000000000000000 ) ) ;
#224 = AXIS2_PLACEMENT_3D ( 'NONE', #223, #298, #272 ) ;
#225 = PERSON_AND_ORGANIZATION ( #185, #164 ) ;
#226 = EDGE_CURVE ( 'NONE', #76, #101, #252, .T. ) ;
#227 = SHAPE_DEFINITION_REPRESENTATION ( #220, #7 ) ;
#228 = AXIS2_PLACEMENT_3D ( 'NONE', #131, #97, #306 ) ;
#229 = PERSON_AND_ORGANIZATION ( #185, #164 ) ;
#230 = AXIS2_PLACEMENT_3D ( 'NONE', #267, #266, #8 ) ;
#231 = CARTESIAN_POINT ( 'NONE',  ( 2.799999999999999822, 0.000000000000000000, 3.000000000000004441 ) ) ;
#232 = DIRECTION ( 'NONE',  ( -0.000000000000000000, -0.000000000000000000, -1.000000000000000000 ) ) ;
#233 = ORIENTED_EDGE ( 'NONE', *, *, #294, .F. ) ;
#234 = CC_DESIGN_DATE_AND_TIME_ASSIGNMENT ( #302, #305, ( #24 ) ) ;
#235 = EDGE_LOOP ( 'NONE', ( #142, #248, #55, #202 ) ) ;
#236 = CC_DESIGN_PERSON_AND_ORGANIZATION_ASSIGNMENT ( #16, #177, ( #18 ) ) ;
#237 = DIRECTION ( 'NONE',  ( 0.000000000000000000, 0.000000000000000000, 1.000000000000000000 ) ) ;
#238 = PRODUCT_RELATED_PRODUCT_CATEGORY ( 'detail', '', ( #18 ) ) ;
#239 = DIRECTION ( 'NONE',  ( -0.000000000000000000, -0.000000000000000000, -1.000000000000000000 ) ) ;
#240 = AXIS2_PLACEMENT_3D ( 'NONE', #263, #239, #37 ) ;
#241 = LINE ( 'NONE', #211, #106 ) ;
#242 = CC_DESIGN_PERSON_AND_ORGANIZATION_ASSIGNMENT ( #77, #2, ( #24 ) ) ;
#243 = CYLINDRICAL_SURFACE ( 'NONE', #174, 2.600000000000000089 ) ;
#244 = CIRCLE ( 'NONE', #228, 5.000000000000000000 ) ;
#245 = FACE_OUTER_BOUND ( 'NONE', #147, .T. ) ;
#246 = AXIS2_PLACEMENT_3D ( 'NONE', #143, #197, #91 ) ;
#247 = COORDINATED_UNIVERSAL_TIME_OFFSET ( 1, 0, .AHEAD. ) ;
#248 = ORIENTED_EDGE ( 'NONE', *, *, #156, .F. ) ;
#249 = DATE_AND_TIME ( #69, #58 ) ;
#250 = ORIENTED_EDGE ( 'NONE', *, *, #156, .T. ) ;
#251 = PERSON_AND_ORGANIZATION ( #185, #164 ) ;
#252 = CIRCLE ( 'NONE', #292, 0.2000000000000000944 ) ;
#253 = EDGE_CURVE ( 'NONE', #68, #57, #62, .T. ) ;
#254 = APPROVAL_STATUS ( 'not_yet_approved' ) ;
#255 = APPROVAL_DATE_TIME ( #126, #87 ) ;
#256 = EDGE_LOOP ( 'NONE', ( #178, #167, #283, #257 ) ) ;
#257 = ORIENTED_EDGE ( 'NONE', *, *, #9, .F. ) ;
#258 = ADVANCED_FACE ( 'NONE', ( #193, #214 ), #86, .T. ) ;
#259 = PERSON_AND_ORGANIZATION_ROLE ( 'design_supplier' ) ;
#260 = ORIENTED_EDGE ( 'NONE', *, *, #172, .F. ) ;
#261 = EDGE_LOOP ( 'NONE', ( #54, #46 ) ) ;
#262 = DIRECTION ( 'NONE',  ( 0.000000000000000000, 0.000000000000000000, 1.000000000000000000 ) ) ;
#263 = CARTESIAN_POINT ( 'NONE',  ( 0.000000000000000000, 0.000000000000000000, 3.000000000000000000 ) ) ;
#264 = CARTESIAN_POINT ( 'NONE',  ( -5.000000000000000000, 0.000000000000000000, 3.000000000000000000 ) ) ;
#265 = EDGE_CURVE ( 'NONE', #57, #101, #209, .T. ) ;
#266 = DIRECTION ( 'NONE',  ( 0.000000000000000000, 0.000000000000000000, 1.000000000000000000 ) ) ;
#267 = CARTESIAN_POINT ( 'NONE',  ( 0.000000000000000000, 0.000000000000000000, 253.0000000000000000 ) ) ;
#268 = AXIS2_PLACEMENT_3D ( 'NONE', #61, #194, #154 ) ;
#269 = CC_DESIGN_DATE_AND_TIME_ASSIGNMENT ( #21, #119, ( #183 ) ) ;
#270 = CC_DESIGN_APPROVAL ( #213, ( #115 ) ) ;
#271 = ORIENTED_EDGE ( 'NONE', *, *, #64, .F. ) ;
#272 = DIRECTION ( 'NONE',  ( 1.000000000000000000, 0.000000000000000000, 0.000000000000000000 ) ) ;
#273 = ORIENTED_EDGE ( 'NONE', *, *, #172, .T. ) ;
#274 = EDGE_CURVE ( 'NONE', #101, #57, #175, .T. ) ;
#275 = APPLICATION_PROTOCOL_DEFINITION ( 'international standard', 'config_control_design', 1994, #140 ) ;
#276 = FACE_OUTER_BOUND ( 'NONE', #17, .T. ) ;
#277 = ORIENTED_EDGE ( 'NONE', *, *, #226, .T. ) ;
#278 = CARTESIAN_POINT ( 'NONE',  ( -5.000000000000000000, 0.000000000000000000, 3.000000000000000000 ) ) ;
#279 = AXIS2_PLACEMENT_3D ( 'NONE', #33, #281, #285 ) ;
#280 = LOCAL_TIME ( 14, 44, 47.00000000000000000, #56 ) ;
#281 = DIRECTION ( 'NONE',  ( 0.000000000000000000, 0.000000000000000000, 1.000000000000000000 ) ) ;
#282 = SECURITY_CLASSIFICATION_LEVEL ( 'unclassified' ) ;
#283 = ORIENTED_EDGE ( 'NONE', *, *, #35, .T. ) ;
#284 = ADVANCED_FACE ( 'NONE', ( #276 ), #71, .T. ) ;
#285 = DIRECTION ( 'NONE',  ( 1.000000000000000000, 0.000000000000000000, 0.000000000000000000 ) ) ;
#286 = DIRECTION ( 'NONE',  ( 1.000000000000000000, 0.000000000000000000, 0.000000000000000000 ) ) ;
#287 = AXIS2_PLACEMENT_3D ( 'NONE', #295, #300, #93 ) ;
#288 = DIRECTION ( 'NONE',  ( 0.000000000000000000, 0.000000000000000000, 1.000000000000000000 ) ) ;
#289 = DIRECTION ( 'NONE',  ( 1.000000000000000000, 0.000000000000000000, 0.000000000000000000 ) ) ;
#290 = AXIS2_PLACEMENT_3D ( 'NONE', #216, #170, #13 ) ;
#291 = CARTESIAN_POINT ( 'NONE',  ( 0.000000000000000000, 0.000000000000000000, 3.000000000000000000 ) ) ;
#292 = AXIS2_PLACEMENT_3D ( 'NONE', #11, #109, #218 ) ;
#293 = FACE_OUTER_BOUND ( 'NONE', #163, .T. ) ;
#294 = EDGE_CURVE ( 'NONE', #3, #190, #36, .T. ) ;
#295 = CARTESIAN_POINT ( 'NONE',  ( 0.000000000000000000, 0.000000000000000000, 0.000000000000000000 ) ) ;
#296 = AXIS2_PLACEMENT_3D ( 'NONE', #291, #196, #173 ) ;
#297 = UNCERTAINTY_MEASURE_WITH_UNIT (LENGTH_MEASURE( 1.000000000000000082E-05 ), #47, 'distance_accuracy_value', 'NONE');
#298 = DIRECTION ( 'NONE',  ( 0.000000000000000000, 0.000000000000000000, 1.000000000000000000 ) ) ;
#299 = ORIENTED_EDGE ( 'NONE', *, *, #15, .F. ) ;
#300 = DIRECTION ( 'NONE',  ( 0.000000000000000000, 0.000000000000000000, 1.000000000000000000 ) ) ;
#301 = DIRECTION ( 'NONE',  ( -0.000000000000000000, -0.000000000000000000, -1.000000000000000000 ) ) ;
#302 = DATE_AND_TIME ( #120, #280 ) ;
#303 = CARTESIAN_POINT ( 'NONE',  ( 0.000000000000000000, 0.000000000000000000, 0.000000000000000000 ) ) ;
#304 = ADVANCED_FACE ( 'NONE', ( #182 ), #138, .T. ) ;
#305 = DATE_TIME_ROLE ( 'classification_date' ) ;
#306 = DIRECTION ( 'NONE',  ( 1.000000000000000000, 0.000000000000000000, 0.000000000000000000 ) ) ;
#307 = LINE ( 'NONE', #74, #103 ) ;
ENDSEC;
END-ISO-10303-21;
