ISO-10303-21;
HEADER;
FILE_DESCRIPTION (( 'STEP AP203' ),
    '1' );
FILE_NAME ('3e3d.STEP',
    '2023-02-12T10:39:01',
    ( '' ),
    ( '' ),
    'SwSTEP 2.0',
    'SolidWorks 2019',
    '' );
FILE_SCHEMA (( 'CONFIG_CONTROL_DESIGN' ));
ENDSEC;

DATA;
#1 = COORDINATED_UNIVERSAL_TIME_OFFSET ( 1, 0, .AHEAD. ) ;
#2 = ORIENTED_EDGE ( 'NONE', *, *, #222, .T. ) ;
#3 = AXIS2_PLACEMENT_3D ( 'NONE', #165, #248, #210 ) ;
#4 = DATE_AND_TIME ( #178, #162 ) ;
#5 = DIRECTION ( 'NONE',  ( 0.000000000000000000, 0.000000000000000000, 1.000000000000000000 ) ) ;
#6 = CC_DESIGN_PERSON_AND_ORGANIZATION_ASSIGNMENT ( #116, #203, ( #150 ) ) ;
#7 = PERSON_AND_ORGANIZATION ( #49, #97 ) ;
#8 = ORIENTED_EDGE ( 'NONE', *, *, #229, .F. ) ;
#9 = CIRCLE ( 'NONE', #191, 11.00000000000000000 ) ;
#10 = CARTESIAN_POINT ( 'NONE',  ( -11.00000000000000000, 0.000000000000000000, 0.000000000000000000 ) ) ;
#11 = EDGE_CURVE ( 'NONE', #176, #120, #9, .T. ) ;
#12 = CYLINDRICAL_SURFACE ( 'NONE', #24, 8.000000000000000000 ) ;
#13 = DIRECTION ( 'NONE',  ( -0.000000000000000000, -0.000000000000000000, -1.000000000000000000 ) ) ;
#14 = CARTESIAN_POINT ( 'NONE',  ( -11.00000000000000000, 0.000000000000000000, 7.000000000000000000 ) ) ;
#15 = CC_DESIGN_PERSON_AND_ORGANIZATION_ASSIGNMENT ( #155, #185, ( #63 ) ) ;
#16 = MECHANICAL_CONTEXT ( 'NONE', #48, 'mechanical' ) ;
#17 = CC_DESIGN_SECURITY_CLASSIFICATION ( #130, ( #63 ) ) ;
#18 = DIRECTION ( 'NONE',  ( -0.000000000000000000, -0.000000000000000000, -1.000000000000000000 ) ) ;
#19 = CARTESIAN_POINT ( 'NONE',  ( 11.00000000000000000, 1.347111479062088405E-15, 0.000000000000000000 ) ) ;
#20 = ADVANCED_FACE ( 'NONE', ( #220 ), #204, .T. ) ;
#21 = CIRCLE ( 'NONE', #39, 11.00000000000000000 ) ;
#22 = DESIGN_CONTEXT ( 'detailed design', #124, 'design' ) ;
#23 = PERSON_AND_ORGANIZATION ( #49, #97 ) ;
#24 = AXIS2_PLACEMENT_3D ( 'NONE', #54, #249, #72 ) ;
#25 = EDGE_LOOP ( 'NONE', ( #79, #8 ) ) ;
#26 = CC_DESIGN_PERSON_AND_ORGANIZATION_ASSIGNMENT ( #7, #118, ( #63 ) ) ;
#27 = CALENDAR_DATE ( 2023, 12, 2 ) ;
#28 = ORIENTED_EDGE ( 'NONE', *, *, #60, .T. ) ;
#29 = COORDINATED_UNIVERSAL_TIME_OFFSET ( 1, 0, .AHEAD. ) ;
#30 = EDGE_LOOP ( 'NONE', ( #65, #28, #100, #184 ) ) ;
#31 = AXIS2_PLACEMENT_3D ( 'NONE', #228, #105, #88 ) ;
#32 = ORIENTED_EDGE ( 'NONE', *, *, #254, .F. ) ;
#33 = CARTESIAN_POINT ( 'NONE',  ( 11.00000000000000000, 1.347111479062088405E-15, 7.000000000000000000 ) ) ;
#34 = LOCAL_TIME ( 11, 39, 1.000000000000000000, #29 ) ;
#35 = CLOSED_SHELL ( 'NONE', ( #85, #234, #20, #53, #240, #122, #112 ) ) ;
#36 = DIRECTION ( 'NONE',  ( 0.000000000000000000, 0.000000000000000000, 1.000000000000000000 ) ) ;
#37 = DIRECTION ( 'NONE',  ( 1.000000000000000000, 0.000000000000000000, 0.000000000000000000 ) ) ;
#38 = CARTESIAN_POINT ( 'NONE',  ( 0.000000000000000000, 0.000000000000000000, 7.000000000000000000 ) ) ;
#39 = AXIS2_PLACEMENT_3D ( 'NONE', #129, #211, #110 ) ;
#40 = PLANE ( 'NONE',  #117 ) ;
#41 = CARTESIAN_POINT ( 'NONE',  ( 0.000000000000000000, 0.000000000000000000, 7.000000000000000000 ) ) ;
#42 = CARTESIAN_POINT ( 'NONE',  ( 0.000000000000000000, 0.000000000000000000, 0.000000000000000000 ) ) ;
#43 = DIRECTION ( 'NONE',  ( 0.000000000000000000, 0.000000000000000000, 1.000000000000000000 ) ) ;
#44 = CIRCLE ( 'NONE', #251, 8.000000000000000000 ) ;
#45 = DATE_AND_TIME ( #76, #106 ) ;
#46 = CARTESIAN_POINT ( 'NONE',  ( 0.000000000000000000, 0.000000000000000000, 7.000000000000000000 ) ) ;
#47 = APPROVAL_DATE_TIME ( #221, #217 ) ;
#48 = APPLICATION_CONTEXT ( 'configuration controlled 3d designs of mechanical parts and assemblies' ) ;
#49 = PERSON ( 'NEURÈENÝ', 'NEURÈENÝ', 'NEURÈENÝ', ('NEURÈENÝ'), ('NEURÈENÝ'), ('NEURÈENÝ') ) ;
#50 = FACE_OUTER_BOUND ( 'NONE', #226, .T. ) ;
#51 = LINE ( 'NONE', #55, #213 ) ;
#52 = PLANE ( 'NONE',  #3 ) ;
#53 = ADVANCED_FACE ( 'NONE', ( #224, #50 ), #86, .T. ) ;
#54 = CARTESIAN_POINT ( 'NONE',  ( 0.000000000000000000, 0.000000000000000000, 500.0000000000000000 ) ) ;
#55 = CARTESIAN_POINT ( 'NONE',  ( 8.000000000000000000, 9.797174393178825657E-16, 500.0000000000000000 ) ) ;
#56 = CARTESIAN_POINT ( 'NONE',  ( 0.000000000000000000, 0.000000000000000000, 0.000000000000000000 ) ) ;
#57 = EDGE_CURVE ( 'NONE', #120, #244, #75, .T. ) ;
#58 = CARTESIAN_POINT ( 'NONE',  ( 0.000000000000000000, 0.000000000000000000, 0.000000000000000000 ) ) ;
#59 = DIRECTION ( 'NONE',  ( 1.000000000000000000, 0.000000000000000000, 0.000000000000000000 ) ) ;
#60 = EDGE_CURVE ( 'NONE', #123, #141, #51, .T. ) ;
#61 = DATE_AND_TIME ( #27, #166 ) ;
#62 = DIRECTION ( 'NONE',  ( 1.000000000000000000, 0.000000000000000000, 0.000000000000000000 ) ) ;
#63 = PRODUCT_DEFINITION_FORMATION_WITH_SPECIFIED_SOURCE ( 'LIBOVOLNÝ', '', #108, .NOT_KNOWN. ) ;
#64 = COORDINATED_UNIVERSAL_TIME_OFFSET ( 1, 0, .AHEAD. ) ;
#65 = ORIENTED_EDGE ( 'NONE', *, *, #245, .F. ) ;
#66 = CC_DESIGN_PERSON_AND_ORGANIZATION_ASSIGNMENT ( #111, #91, ( #108 ) ) ;
#67 = DATE_TIME_ROLE ( 'classification_date' ) ;
#68 = ORIENTED_EDGE ( 'NONE', *, *, #128, .F. ) ;
#69 = CC_DESIGN_APPROVAL ( #104, ( #63 ) ) ;
#70 = ORIENTED_EDGE ( 'NONE', *, *, #134, .F. ) ;
#71 = CC_DESIGN_PERSON_AND_ORGANIZATION_ASSIGNMENT ( #243, #81, ( #130 ) ) ;
#72 = DIRECTION ( 'NONE',  ( -1.000000000000000000, 0.000000000000000000, 0.000000000000000000 ) ) ;
#73 = CARTESIAN_POINT ( 'NONE',  ( 8.000000000000000000, 9.797174393178825657E-16, 500.0000000000000000 ) ) ;
#74 = EDGE_CURVE ( 'NONE', #158, #201, #190, .T. ) ;
#75 = LINE ( 'NONE', #227, #167 ) ;
#76 = CALENDAR_DATE ( 2023, 12, 2 ) ;
#77 =( NAMED_UNIT ( * ) SI_UNIT ( $, .STERADIAN. ) SOLID_ANGLE_UNIT ( ) );
#78 = APPROVAL_DATE_TIME ( #4, #104 ) ;
#79 = ORIENTED_EDGE ( 'NONE', *, *, #168, .F. ) ;
#80 = VERTEX_POINT ( 'NONE', #10 ) ;
#81 = PERSON_AND_ORGANIZATION_ROLE ( 'classification_officer' ) ;
#82 = CIRCLE ( 'NONE', #31, 8.000000000000000000 ) ;
#83 = ORIENTED_EDGE ( 'NONE', *, *, #245, .T. ) ;
#84 = APPROVAL_STATUS ( 'not_yet_approved' ) ;
#85 = ADVANCED_FACE ( 'NONE', ( #125 ), #107, .T. ) ;
#86 = PLANE ( 'NONE',  #154 ) ;
#87 = CIRCLE ( 'NONE', #177, 8.000000000000000000 ) ;
#88 = DIRECTION ( 'NONE',  ( 1.000000000000000000, 0.000000000000000000, 0.000000000000000000 ) ) ;
#89 = CARTESIAN_POINT ( 'NONE',  ( 0.000000000000000000, 0.000000000000000000, 500.0000000000000000 ) ) ;
#90 = FACE_OUTER_BOUND ( 'NONE', #205, .T. ) ;
#91 = PERSON_AND_ORGANIZATION_ROLE ( 'design_owner' ) ;
#92 = LOCAL_TIME ( 11, 39, 1.000000000000000000, #64 ) ;
#93 = DIRECTION ( 'NONE',  ( 1.000000000000000000, 0.000000000000000000, 0.000000000000000000 ) ) ;
#94 = DIRECTION ( 'NONE',  ( 0.000000000000000000, 0.000000000000000000, 1.000000000000000000 ) ) ;
#95 = DIRECTION ( 'NONE',  ( 0.000000000000000000, 0.000000000000000000, 1.000000000000000000 ) ) ;
#96 = DIRECTION ( 'NONE',  ( 1.000000000000000000, 0.000000000000000000, 0.000000000000000000 ) ) ;
#97 = ORGANIZATION ( 'NEURÈENÝ', 'NEURÈENÝ', '' ) ;
#98 = COORDINATED_UNIVERSAL_TIME_OFFSET ( 1, 0, .AHEAD. ) ;
#99 = ORIENTED_EDGE ( 'NONE', *, *, #101, .F. ) ;
#100 = ORIENTED_EDGE ( 'NONE', *, *, #128, .T. ) ;
#101 = EDGE_CURVE ( 'NONE', #201, #141, #82, .T. ) ;
#102 = ORIENTED_EDGE ( 'NONE', *, *, #57, .F. ) ;
#103 = EDGE_LOOP ( 'NONE', ( #246, #83 ) ) ;
#104 = APPROVAL ( #84, 'NEURÈENÝ' ) ;
#105 = DIRECTION ( 'NONE',  ( 0.000000000000000000, 0.000000000000000000, 1.000000000000000000 ) ) ;
#106 = LOCAL_TIME ( 11, 39, 1.000000000000000000, #1 ) ;
#107 = CYLINDRICAL_SURFACE ( 'NONE', #135, 8.000000000000000000 ) ;
#108 = PRODUCT ( '3e3d', '3e3d', '', ( #16 ) ) ;
#109 = DIRECTION ( 'NONE',  ( -0.000000000000000000, -0.000000000000000000, -1.000000000000000000 ) ) ;
#110 = DIRECTION ( 'NONE',  ( 1.000000000000000000, 0.000000000000000000, 0.000000000000000000 ) ) ;
#111 = PERSON_AND_ORGANIZATION ( #49, #97 ) ;
#112 = ADVANCED_FACE ( 'NONE', ( #250 ), #52, .T. ) ;
#113 = CARTESIAN_POINT ( 'NONE',  ( 0.000000000000000000, 0.000000000000000000, 500.0000000000000000 ) ) ;
#114 =( LENGTH_UNIT ( ) NAMED_UNIT ( * ) SI_UNIT ( .MILLI., .METRE. ) );
#115 = CARTESIAN_POINT ( 'NONE',  ( -11.00000000000000000, 0.000000000000000000, 7.000000000000000000 ) ) ;
#116 = PERSON_AND_ORGANIZATION ( #49, #97 ) ;
#117 = AXIS2_PLACEMENT_3D ( 'NONE', #58, #133, #195 ) ;
#118 = PERSON_AND_ORGANIZATION_ROLE ( 'design_supplier' ) ;
#119 = APPROVAL_DATE_TIME ( #45, #189 ) ;
#120 = VERTEX_POINT ( 'NONE', #33 ) ;
#121 = CARTESIAN_POINT ( 'NONE',  ( 0.000000000000000000, 0.000000000000000000, 7.000000000000000000 ) ) ;
#122 = ADVANCED_FACE ( 'NONE', ( #90 ), #12, .T. ) ;
#123 = VERTEX_POINT ( 'NONE', #73 ) ;
#124 = APPLICATION_CONTEXT ( 'configuration controlled 3d designs of mechanical parts and assemblies' ) ;
#125 = FACE_OUTER_BOUND ( 'NONE', #30, .T. ) ;
#126 = CC_DESIGN_APPROVAL ( #217, ( #130 ) ) ;
#127 = DIRECTION ( 'NONE',  ( 0.000000000000000000, 0.000000000000000000, 1.000000000000000000 ) ) ;
#128 = EDGE_CURVE ( 'NONE', #141, #201, #247, .T. ) ;
#129 = CARTESIAN_POINT ( 'NONE',  ( 0.000000000000000000, 0.000000000000000000, 0.000000000000000000 ) ) ;
#130 = SECURITY_CLASSIFICATION ( '', '', #237 ) ;
#131 = CARTESIAN_POINT ( 'NONE',  ( 0.000000000000000000, 0.000000000000000000, 7.000000000000000000 ) ) ;
#132 = APPROVAL_ROLE ( '' ) ;
#133 = DIRECTION ( 'NONE',  ( 0.000000000000000000, 0.000000000000000000, 1.000000000000000000 ) ) ;
#134 = EDGE_CURVE ( 'NONE', #158, #123, #87, .T. ) ;
#135 = AXIS2_PLACEMENT_3D ( 'NONE', #89, #13, #164 ) ;
#136 = ORIENTED_EDGE ( 'NONE', *, *, #11, .T. ) ;
#137 = DATE_AND_TIME ( #183, #34 ) ;
#138 = AXIS2_PLACEMENT_3D ( 'NONE', #41, #18, #214 ) ;
#139 = ORIENTED_EDGE ( 'NONE', *, *, #57, .T. ) ;
#140 = CALENDAR_DATE ( 2023, 12, 2 ) ;
#141 = VERTEX_POINT ( 'NONE', #187 ) ;
#142 = EDGE_LOOP ( 'NONE', ( #99, #68 ) ) ;
#143 = SHAPE_DEFINITION_REPRESENTATION ( #230, #145 ) ;
#144 = DIRECTION ( 'NONE',  ( -1.000000000000000000, 0.000000000000000000, 0.000000000000000000 ) ) ;
#145 = ADVANCED_BREP_SHAPE_REPRESENTATION ( '3e3d', ( #163, #174 ), #219 ) ;
#146 = APPROVAL_PERSON_ORGANIZATION ( #153, #189, #132 ) ;
#147 = ORIENTED_EDGE ( 'NONE', *, *, #229, .T. ) ;
#148 = DIRECTION ( 'NONE',  ( 1.000000000000000000, 0.000000000000000000, -0.000000000000000000 ) ) ;
#149 = DIRECTION ( 'NONE',  ( -0.000000000000000000, -0.000000000000000000, -1.000000000000000000 ) ) ;
#150 = PRODUCT_DEFINITION ( 'NEZNÁMÝ', '', #63, #22 ) ;
#151 = CARTESIAN_POINT ( 'NONE',  ( -8.000000000000000000, 0.000000000000000000, 500.0000000000000000 ) ) ;
#152 = VECTOR ( 'NONE', #192, 1000.000000000000000 ) ;
#153 = PERSON_AND_ORGANIZATION ( #49, #97 ) ;
#154 = AXIS2_PLACEMENT_3D ( 'NONE', #131, #127, #148 ) ;
#155 = PERSON_AND_ORGANIZATION ( #49, #97 ) ;
#156 = ORIENTED_EDGE ( 'NONE', *, *, #168, .T. ) ;
#157 = PERSON_AND_ORGANIZATION ( #49, #97 ) ;
#158 = VERTEX_POINT ( 'NONE', #252 ) ;
#159 = ORIENTED_EDGE ( 'NONE', *, *, #254, .T. ) ;
#160 = EDGE_LOOP ( 'NONE', ( #32, #139, #147, #181 ) ) ;
#161 = APPROVAL_STATUS ( 'not_yet_approved' ) ;
#162 = LOCAL_TIME ( 11, 39, 1.000000000000000000, #98 ) ;
#163 = MANIFOLD_SOLID_BREP ( 'Pøidat vysunutím3', #35 ) ;
#164 = DIRECTION ( 'NONE',  ( -1.000000000000000000, 0.000000000000000000, 0.000000000000000000 ) ) ;
#165 = CARTESIAN_POINT ( 'NONE',  ( 0.000000000000000000, 0.000000000000000000, 500.0000000000000000 ) ) ;
#166 = LOCAL_TIME ( 11, 39, 1.000000000000000000, #200 ) ;
#167 = VECTOR ( 'NONE', #149, 1000.000000000000000 ) ;
#168 = EDGE_CURVE ( 'NONE', #80, #244, #21, .T. ) ;
#169 = CARTESIAN_POINT ( 'NONE',  ( -8.000000000000000000, 0.000000000000000000, 7.000000000000000000 ) ) ;
#170 = APPLICATION_PROTOCOL_DEFINITION ( 'international standard', 'config_control_design', 1994, #124 ) ;
#171 = AXIS2_PLACEMENT_3D ( 'NONE', #46, #241, #144 ) ;
#172 =( NAMED_UNIT ( * ) PLANE_ANGLE_UNIT ( ) SI_UNIT ( $, .RADIAN. ) );
#173 = CC_DESIGN_DATE_AND_TIME_ASSIGNMENT ( #137, #198, ( #150 ) ) ;
#174 = AXIS2_PLACEMENT_3D ( 'NONE', #56, #43, #96 ) ;
#175 = CARTESIAN_POINT ( 'NONE',  ( 0.000000000000000000, 0.000000000000000000, 7.000000000000000000 ) ) ;
#176 = VERTEX_POINT ( 'NONE', #14 ) ;
#177 = AXIS2_PLACEMENT_3D ( 'NONE', #188, #206, #209 ) ;
#178 = CALENDAR_DATE ( 2023, 12, 2 ) ;
#179 = EDGE_LOOP ( 'NONE', ( #102, #196, #2, #156 ) ) ;
#180 = APPROVAL_ROLE ( '' ) ;
#181 = ORIENTED_EDGE ( 'NONE', *, *, #222, .F. ) ;
#182 = AXIS2_PLACEMENT_3D ( 'NONE', #42, #94, #59 ) ;
#183 = CALENDAR_DATE ( 2023, 12, 2 ) ;
#184 = ORIENTED_EDGE ( 'NONE', *, *, #74, .F. ) ;
#185 = PERSON_AND_ORGANIZATION_ROLE ( 'creator' ) ;
#186 = ORIENTED_EDGE ( 'NONE', *, *, #60, .F. ) ;
#187 = CARTESIAN_POINT ( 'NONE',  ( 8.000000000000000000, 9.797174393178825657E-16, 7.000000000000000000 ) ) ;
#188 = CARTESIAN_POINT ( 'NONE',  ( 0.000000000000000000, 0.000000000000000000, 500.0000000000000000 ) ) ;
#189 = APPROVAL ( #233, 'NEURÈENÝ' ) ;
#190 = LINE ( 'NONE', #151, #208 ) ;
#191 = AXIS2_PLACEMENT_3D ( 'NONE', #121, #5, #62 ) ;
#192 = DIRECTION ( 'NONE',  ( -0.000000000000000000, -0.000000000000000000, -1.000000000000000000 ) ) ;
#193 = UNCERTAINTY_MEASURE_WITH_UNIT (LENGTH_MEASURE( 1.000000000000000082E-05 ), #114, 'distance_accuracy_value', 'NONE');
#194 = FACE_OUTER_BOUND ( 'NONE', #25, .T. ) ;
#195 = DIRECTION ( 'NONE',  ( 1.000000000000000000, 0.000000000000000000, -0.000000000000000000 ) ) ;
#196 = ORIENTED_EDGE ( 'NONE', *, *, #11, .F. ) ;
#197 = DIRECTION ( 'NONE',  ( 1.000000000000000000, 0.000000000000000000, 0.000000000000000000 ) ) ;
#198 = DATE_TIME_ROLE ( 'creation_date' ) ;
#199 = AXIS2_PLACEMENT_3D ( 'NONE', #38, #36, #37 ) ;
#200 = COORDINATED_UNIVERSAL_TIME_OFFSET ( 1, 0, .AHEAD. ) ;
#201 = VERTEX_POINT ( 'NONE', #169 ) ;
#202 = CC_DESIGN_DATE_AND_TIME_ASSIGNMENT ( #61, #67, ( #130 ) ) ;
#203 = PERSON_AND_ORGANIZATION_ROLE ( 'creator' ) ;
#204 = CYLINDRICAL_SURFACE ( 'NONE', #171, 11.00000000000000000 ) ;
#205 = EDGE_LOOP ( 'NONE', ( #186, #70, #218, #242 ) ) ;
#206 = DIRECTION ( 'NONE',  ( 0.000000000000000000, 0.000000000000000000, 1.000000000000000000 ) ) ;
#207 = APPROVAL_PERSON_ORGANIZATION ( #23, #104, #180 ) ;
#208 = VECTOR ( 'NONE', #109, 1000.000000000000000 ) ;
#209 = DIRECTION ( 'NONE',  ( 1.000000000000000000, 0.000000000000000000, 0.000000000000000000 ) ) ;
#210 = DIRECTION ( 'NONE',  ( 1.000000000000000000, 0.000000000000000000, -0.000000000000000000 ) ) ;
#211 = DIRECTION ( 'NONE',  ( 0.000000000000000000, 0.000000000000000000, 1.000000000000000000 ) ) ;
#212 = FACE_OUTER_BOUND ( 'NONE', #160, .T. ) ;
#213 = VECTOR ( 'NONE', #231, 1000.000000000000000 ) ;
#214 = DIRECTION ( 'NONE',  ( -1.000000000000000000, 0.000000000000000000, 0.000000000000000000 ) ) ;
#215 = CYLINDRICAL_SURFACE ( 'NONE', #138, 11.00000000000000000 ) ;
#216 = DIRECTION ( 'NONE',  ( 0.000000000000000000, 0.000000000000000000, 1.000000000000000000 ) ) ;
#217 = APPROVAL ( #161, 'NEURÈENÝ' ) ;
#218 = ORIENTED_EDGE ( 'NONE', *, *, #74, .T. ) ;
#219 =( GEOMETRIC_REPRESENTATION_CONTEXT ( 3 ) GLOBAL_UNCERTAINTY_ASSIGNED_CONTEXT ( ( #193 ) ) GLOBAL_UNIT_ASSIGNED_CONTEXT ( ( #114, #172, #77 ) ) REPRESENTATION_CONTEXT ( 'NONE', 'WORKASPACE' ) );
#220 = FACE_OUTER_BOUND ( 'NONE', #179, .T. ) ;
#221 = DATE_AND_TIME ( #140, #92 ) ;
#222 = EDGE_CURVE ( 'NONE', #176, #80, #253, .T. ) ;
#223 = CIRCLE ( 'NONE', #238, 11.00000000000000000 ) ;
#224 = FACE_BOUND ( 'NONE', #142, .T. ) ;
#225 = PRODUCT_RELATED_PRODUCT_CATEGORY ( 'detail', '', ( #108 ) ) ;
#226 = EDGE_LOOP ( 'NONE', ( #136, #159 ) ) ;
#227 = CARTESIAN_POINT ( 'NONE',  ( 11.00000000000000000, 1.347111479062088405E-15, 7.000000000000000000 ) ) ;
#228 = CARTESIAN_POINT ( 'NONE',  ( 0.000000000000000000, 0.000000000000000000, 7.000000000000000000 ) ) ;
#229 = EDGE_CURVE ( 'NONE', #244, #80, #232, .T. ) ;
#230 = PRODUCT_DEFINITION_SHAPE ( 'NONE', 'NONE',  #150 ) ;
#231 = DIRECTION ( 'NONE',  ( -0.000000000000000000, -0.000000000000000000, -1.000000000000000000 ) ) ;
#232 = CIRCLE ( 'NONE', #182, 11.00000000000000000 ) ;
#233 = APPROVAL_STATUS ( 'not_yet_approved' ) ;
#234 = ADVANCED_FACE ( 'NONE', ( #212 ), #215, .T. ) ;
#235 = APPROVAL_PERSON_ORGANIZATION ( #157, #217, #239 ) ;
#236 = APPLICATION_PROTOCOL_DEFINITION ( 'international standard', 'config_control_design', 1994, #48 ) ;
#237 = SECURITY_CLASSIFICATION_LEVEL ( 'unclassified' ) ;
#238 = AXIS2_PLACEMENT_3D ( 'NONE', #175, #216, #93 ) ;
#239 = APPROVAL_ROLE ( '' ) ;
#240 = ADVANCED_FACE ( 'NONE', ( #194 ), #40, .F. ) ;
#241 = DIRECTION ( 'NONE',  ( -0.000000000000000000, -0.000000000000000000, -1.000000000000000000 ) ) ;
#242 = ORIENTED_EDGE ( 'NONE', *, *, #101, .T. ) ;
#243 = PERSON_AND_ORGANIZATION ( #49, #97 ) ;
#244 = VERTEX_POINT ( 'NONE', #19 ) ;
#245 = EDGE_CURVE ( 'NONE', #123, #158, #44, .T. ) ;
#246 = ORIENTED_EDGE ( 'NONE', *, *, #134, .T. ) ;
#247 = CIRCLE ( 'NONE', #199, 8.000000000000000000 ) ;
#248 = DIRECTION ( 'NONE',  ( 0.000000000000000000, 0.000000000000000000, 1.000000000000000000 ) ) ;
#249 = DIRECTION ( 'NONE',  ( -0.000000000000000000, -0.000000000000000000, -1.000000000000000000 ) ) ;
#250 = FACE_OUTER_BOUND ( 'NONE', #103, .T. ) ;
#251 = AXIS2_PLACEMENT_3D ( 'NONE', #113, #95, #197 ) ;
#252 = CARTESIAN_POINT ( 'NONE',  ( -8.000000000000000000, 0.000000000000000000, 500.0000000000000000 ) ) ;
#253 = LINE ( 'NONE', #115, #152 ) ;
#254 = EDGE_CURVE ( 'NONE', #120, #176, #223, .T. ) ;
#255 = CC_DESIGN_APPROVAL ( #189, ( #150 ) ) ;
ENDSEC;
END-ISO-10303-21;
