ISO-10303-21;
HEADER;
FILE_DESCRIPTION (( 'STEP AP203' ),
    '1' );
FILE_NAME ('3fab.STEP',
    '2022-07-07T12:23:39',
    ( '' ),
    ( '' ),
    'SwSTEP 2.0',
    'SolidWorks 2019',
    '' );
FILE_SCHEMA (( 'CONFIG_CONTROL_DESIGN' ));
ENDSEC;

DATA;
#1 = DIRECTION ( 'NONE',  ( 1.000000000000000000, 0.000000000000000000, 0.000000000000000000 ) ) ;
#2 = PLANE ( 'NONE',  #23 ) ;
#3 = PERSON_AND_ORGANIZATION_ROLE ( 'classification_officer' ) ;
#4 = APPROVAL_PERSON_ORGANIZATION ( #173, #260, #50 ) ;
#5 = PERSON_AND_ORGANIZATION_ROLE ( 'design_supplier' ) ;
#6 = PERSON_AND_ORGANIZATION ( #172, #267 ) ;
#7 = APPROVAL_STATUS ( 'not_yet_approved' ) ;
#8 = ORIENTED_EDGE ( 'NONE', *, *, #249, .F. ) ;
#9 = APPROVAL_DATE_TIME ( #121, #260 ) ;
#10 = ORIENTED_EDGE ( 'NONE', *, *, #59, .T. ) ;
#11 = AXIS2_PLACEMENT_3D ( 'NONE', #22, #305, #86 ) ;
#12 = AXIS2_PLACEMENT_3D ( 'NONE', #163, #244, #209 ) ;
#13 = DIRECTION ( 'NONE',  ( 1.000000000000000000, 0.000000000000000000, 0.000000000000000000 ) ) ;
#14 = ORIENTED_EDGE ( 'NONE', *, *, #296, .F. ) ;
#15 = DIRECTION ( 'NONE',  ( 0.000000000000000000, 0.000000000000000000, 1.000000000000000000 ) ) ;
#16 = AXIS2_PLACEMENT_3D ( 'NONE', #62, #115, #1 ) ;
#17 = LINE ( 'NONE', #40, #295 ) ;
#18 = CARTESIAN_POINT ( 'NONE',  ( 0.000000000000000000, 0.000000000000000000, 7.000000000000000000 ) ) ;
#19 = DIRECTION ( 'NONE',  ( -0.000000000000000000, -0.000000000000000000, -1.000000000000000000 ) ) ;
#20 = FACE_OUTER_BOUND ( 'NONE', #231, .T. ) ;
#21 = DIRECTION ( 'NONE',  ( -0.000000000000000000, -0.000000000000000000, -1.000000000000000000 ) ) ;
#22 = CARTESIAN_POINT ( 'NONE',  ( 0.000000000000000000, 0.000000000000000000, 7.200000000000011724 ) ) ;
#23 = AXIS2_PLACEMENT_3D ( 'NONE', #280, #185, #90 ) ;
#24 = CIRCLE ( 'NONE', #190, 9.000000000000000000 ) ;
#25 = APPROVAL ( #53, 'NEURÈENÝ' ) ;
#26 = CALENDAR_DATE ( 2022, 7, 7 ) ;
#27 = ORIENTED_EDGE ( 'NONE', *, *, #87, .T. ) ;
#28 = CALENDAR_DATE ( 2022, 7, 7 ) ;
#29 = APPROVAL_STATUS ( 'not_yet_approved' ) ;
#30 = CALENDAR_DATE ( 2022, 7, 7 ) ;
#31 = CIRCLE ( 'NONE', #11, 6.000000000000000888 ) ;
#32 = ADVANCED_FACE ( 'NONE', ( #109 ), #279, .F. ) ;
#33 = APPROVAL_DATE_TIME ( #167, #25 ) ;
#34 = ORIENTED_EDGE ( 'NONE', *, *, #228, .T. ) ;
#35 = CC_DESIGN_DATE_AND_TIME_ASSIGNMENT ( #75, #193, ( #212 ) ) ;
#36 = CARTESIAN_POINT ( 'NONE',  ( 0.000000000000000000, 0.000000000000000000, 0.000000000000000000 ) ) ;
#37 = ORIENTED_EDGE ( 'NONE', *, *, #137, .T. ) ;
#38 = VECTOR ( 'NONE', #21, 1000.000000000000000 ) ;
#39 = APPROVAL_PERSON_ORGANIZATION ( #147, #25, #148 ) ;
#40 = CARTESIAN_POINT ( 'NONE',  ( 6.000000000000000888, 7.347880794884120722E-16, 207.0000000000000284 ) ) ;
#41 = VERTEX_POINT ( 'NONE', #154 ) ;
#42 = CARTESIAN_POINT ( 'NONE',  ( 0.000000000000000000, 0.000000000000000000, 207.0000000000000284 ) ) ;
#43 = ADVANCED_FACE ( 'NONE', ( #155 ), #254, .T. ) ;
#44 = DIRECTION ( 'NONE',  ( -1.000000000000000000, 0.000000000000000000, 0.000000000000000000 ) ) ;
#45 = DIRECTION ( 'NONE',  ( -0.000000000000000000, -0.000000000000000000, -1.000000000000000000 ) ) ;
#46 = VECTOR ( 'NONE', #61, 1000.000000000000000 ) ;
#47 = CARTESIAN_POINT ( 'NONE',  ( -6.000000000000000888, 0.000000000000000000, 207.0000000000000284 ) ) ;
#48 = CARTESIAN_POINT ( 'NONE',  ( -9.000000000000000000, 0.000000000000000000, 7.000000000000000000 ) ) ;
#49 = CIRCLE ( 'NONE', #149, 6.000000000000000888 ) ;
#50 = APPROVAL_ROLE ( '' ) ;
#51 =( NAMED_UNIT ( * ) SI_UNIT ( $, .STERADIAN. ) SOLID_ANGLE_UNIT ( ) );
#52 = CIRCLE ( 'NONE', #91, 0.1999999999999996503 ) ;
#53 = APPROVAL_STATUS ( 'not_yet_approved' ) ;
#54 = CARTESIAN_POINT ( 'NONE',  ( 0.000000000000000000, 0.000000000000000000, 7.200000000000011724 ) ) ;
#55 = CC_DESIGN_DATE_AND_TIME_ASSIGNMENT ( #225, #289, ( #76 ) ) ;
#56 = APPLICATION_CONTEXT ( 'configuration controlled 3d designs of mechanical parts and assemblies' ) ;
#57 = DIRECTION ( 'NONE',  ( -0.000000000000000000, -0.000000000000000000, -1.000000000000000000 ) ) ;
#58 = ORIENTED_EDGE ( 'NONE', *, *, #59, .F. ) ;
#59 = EDGE_CURVE ( 'NONE', #99, #117, #17, .T. ) ;
#60 = CARTESIAN_POINT ( 'NONE',  ( -9.000000000000000000, 0.000000000000000000, 0.000000000000000000 ) ) ;
#61 = DIRECTION ( 'NONE',  ( -0.000000000000000000, -0.000000000000000000, -1.000000000000000000 ) ) ;
#62 = CARTESIAN_POINT ( 'NONE',  ( 0.000000000000000000, 0.000000000000000000, 7.200000000000011724 ) ) ;
#63 = DIRECTION ( 'NONE',  ( 0.000000000000000000, 0.000000000000000000, 1.000000000000000000 ) ) ;
#64 = AXIS2_PLACEMENT_3D ( 'NONE', #105, #129, #177 ) ;
#65 = CARTESIAN_POINT ( 'NONE',  ( 0.000000000000000000, 0.000000000000000000, 7.000000000000000000 ) ) ;
#66 = LOCAL_TIME ( 14, 23, 39.00000000000000000, #292 ) ;
#67 = DIRECTION ( 'NONE',  ( 1.000000000000000000, 0.000000000000000000, -0.000000000000000000 ) ) ;
#68 = DIRECTION ( 'NONE',  ( 0.000000000000000000, 0.000000000000000000, 1.000000000000000000 ) ) ;
#69 = EDGE_CURVE ( 'NONE', #74, #229, #159, .T. ) ;
#70 = ORIENTED_EDGE ( 'NONE', *, *, #249, .T. ) ;
#71 = APPROVAL_PERSON_ORGANIZATION ( #219, #170, #96 ) ;
#72 = VERTEX_POINT ( 'NONE', #178 ) ;
#73 = COORDINATED_UNIVERSAL_TIME_OFFSET ( 1, 0, .AHEAD. ) ;
#74 = VERTEX_POINT ( 'NONE', #234 ) ;
#75 = DATE_AND_TIME ( #26, #176 ) ;
#76 = PRODUCT_DEFINITION ( 'NEZNÁMÝ', '', #165, #108 ) ;
#77 = AXIS2_PLACEMENT_3D ( 'NONE', #65, #45, #261 ) ;
#78 = CARTESIAN_POINT ( 'NONE',  ( 6.000000000000000888, 7.347880794884120722E-16, 7.200000000000011724 ) ) ;
#79 = PRODUCT_RELATED_PRODUCT_CATEGORY ( 'detail', '', ( #227 ) ) ;
#80 = EDGE_LOOP ( 'NONE', ( #197, #180, #272, #81 ) ) ;
#81 = ORIENTED_EDGE ( 'NONE', *, *, #273, .F. ) ;
#82 = ORIENTED_EDGE ( 'NONE', *, *, #100, .F. ) ;
#83 = AXIS2_PLACEMENT_3D ( 'NONE', #239, #19, #112 ) ;
#84 = DIRECTION ( 'NONE',  ( 1.000000000000000000, 0.000000000000000000, 0.000000000000000000 ) ) ;
#85 = DIRECTION ( 'NONE',  ( -0.000000000000000000, -0.000000000000000000, -1.000000000000000000 ) ) ;
#86 = DIRECTION ( 'NONE',  ( 1.000000000000000000, 0.000000000000000000, 0.000000000000000000 ) ) ;
#87 = EDGE_CURVE ( 'NONE', #99, #203, #104, .T. ) ;
#88 = LOCAL_TIME ( 14, 23, 39.00000000000000000, #246 ) ;
#89 = CYLINDRICAL_SURFACE ( 'NONE', #174, 9.000000000000000000 ) ;
#90 = DIRECTION ( 'NONE',  ( 1.000000000000000000, 0.000000000000000000, -0.000000000000000000 ) ) ;
#91 = AXIS2_PLACEMENT_3D ( 'NONE', #158, #201, #257 ) ;
#92 = DIRECTION ( 'NONE',  ( 0.000000000000000000, 0.000000000000000000, 1.000000000000000000 ) ) ;
#93 = EDGE_CURVE ( 'NONE', #203, #99, #49, .T. ) ;
#94 = CLOSED_SHELL ( 'NONE', ( #183, #187, #245, #142, #152, #281, #123, #43, #32 ) ) ;
#95 = CC_DESIGN_APPROVAL ( #25, ( #76 ) ) ;
#96 = APPROVAL_ROLE ( '' ) ;
#97 = ORIENTED_EDGE ( 'NONE', *, *, #228, .F. ) ;
#98 = COORDINATED_UNIVERSAL_TIME_OFFSET ( 1, 0, .AHEAD. ) ;
#99 = VERTEX_POINT ( 'NONE', #275 ) ;
#100 = EDGE_CURVE ( 'NONE', #126, #141, #24, .T. ) ;
#101 = CARTESIAN_POINT ( 'NONE',  ( 0.000000000000000000, 0.000000000000000000, 207.0000000000000284 ) ) ;
#102 = CARTESIAN_POINT ( 'NONE',  ( 0.000000000000000000, 0.000000000000000000, 207.0000000000000284 ) ) ;
#103 = DIRECTION ( 'NONE',  ( -1.000000000000000000, 0.000000000000000000, 0.000000000000000000 ) ) ;
#104 = CIRCLE ( 'NONE', #139, 6.000000000000000888 ) ;
#105 = CARTESIAN_POINT ( 'NONE',  ( -6.200000000000001066, 7.592810154713590821E-16, 7.200000000000011724 ) ) ;
#106 = CIRCLE ( 'NONE', #16, 6.000000000000000888 ) ;
#107 = AXIS2_PLACEMENT_3D ( 'NONE', #195, #68, #268 ) ;
#108 = DESIGN_CONTEXT ( 'detailed design', #118, 'design' ) ;
#109 = FACE_OUTER_BOUND ( 'NONE', #198, .T. ) ;
#110 = CC_DESIGN_PERSON_AND_ORGANIZATION_ASSIGNMENT ( #6, #140, ( #76 ) ) ;
#111 = FACE_BOUND ( 'NONE', #269, .T. ) ;
#112 = DIRECTION ( 'NONE',  ( 1.000000000000000000, 0.000000000000000000, 0.000000000000000000 ) ) ;
#113 = DIRECTION ( 'NONE',  ( 0.000000000000000000, 0.000000000000000000, 1.000000000000000000 ) ) ;
#114 = DIRECTION ( 'NONE',  ( 1.000000000000000000, 0.000000000000000000, 0.000000000000000000 ) ) ;
#115 = DIRECTION ( 'NONE',  ( 0.000000000000000000, 0.000000000000000000, 1.000000000000000000 ) ) ;
#116 = COORDINATED_UNIVERSAL_TIME_OFFSET ( 1, 0, .AHEAD. ) ;
#117 = VERTEX_POINT ( 'NONE', #78 ) ;
#118 = APPLICATION_CONTEXT ( 'configuration controlled 3d designs of mechanical parts and assemblies' ) ;
#119 = APPLICATION_PROTOCOL_DEFINITION ( 'international standard', 'config_control_design', 1994, #56 ) ;
#120 = SECURITY_CLASSIFICATION_LEVEL ( 'unclassified' ) ;
#121 = DATE_AND_TIME ( #30, #88 ) ;
#122 = ORIENTED_EDGE ( 'NONE', *, *, #265, .F. ) ;
#123 = ADVANCED_FACE ( 'NONE', ( #278 ), #300, .T. ) ;
#124 = DIRECTION ( 'NONE',  ( 1.000000000000000000, 0.000000000000000000, 0.000000000000000000 ) ) ;
#125 = CC_DESIGN_SECURITY_CLASSIFICATION ( #212, ( #165 ) ) ;
#126 = VERTEX_POINT ( 'NONE', #60 ) ;
#127 = DATE_AND_TIME ( #171, #199 ) ;
#128 = EDGE_LOOP ( 'NONE', ( #58, #179, #237, #34 ) ) ;
#129 = DIRECTION ( 'NONE',  ( 1.224646799147353207E-16, 1.000000000000000000, -0.000000000000000000 ) ) ;
#130 = AXIS2_PLACEMENT_3D ( 'NONE', #101, #57, #103 ) ;
#131 = CIRCLE ( 'NONE', #144, 9.000000000000000000 ) ;
#132 = CC_DESIGN_PERSON_AND_ORGANIZATION_ASSIGNMENT ( #252, #145, ( #227 ) ) ;
#133 = CYLINDRICAL_SURFACE ( 'NONE', #224, 9.000000000000000000 ) ;
#134 = FACE_OUTER_BOUND ( 'NONE', #80, .T. ) ;
#135 = FACE_OUTER_BOUND ( 'NONE', #303, .T. ) ;
#136 = CARTESIAN_POINT ( 'NONE',  ( 0.000000000000000000, 0.000000000000000000, 7.000000000000000000 ) ) ;
#137 = EDGE_CURVE ( 'NONE', #117, #72, #52, .T. ) ;
#138 = DIRECTION ( 'NONE',  ( -0.000000000000000000, -0.000000000000000000, -1.000000000000000000 ) ) ;
#139 = AXIS2_PLACEMENT_3D ( 'NONE', #277, #253, #206 ) ;
#140 = PERSON_AND_ORGANIZATION_ROLE ( 'creator' ) ;
#141 = VERTEX_POINT ( 'NONE', #274 ) ;
#142 = ADVANCED_FACE ( 'NONE', ( #307 ), #89, .T. ) ;
#143 = AXIS2_PLACEMENT_3D ( 'NONE', #160, #92, #191 ) ;
#144 = AXIS2_PLACEMENT_3D ( 'NONE', #188, #243, #114 ) ;
#145 = PERSON_AND_ORGANIZATION_ROLE ( 'design_owner' ) ;
#146 = EDGE_LOOP ( 'NONE', ( #153, #157, #271, #220 ) ) ;
#147 = PERSON_AND_ORGANIZATION ( #172, #267 ) ;
#148 = APPROVAL_ROLE ( '' ) ;
#149 = AXIS2_PLACEMENT_3D ( 'NONE', #102, #202, #84 ) ;
#150 = CC_DESIGN_APPROVAL ( #170, ( #212 ) ) ;
#151 =( LENGTH_UNIT ( ) NAMED_UNIT ( * ) SI_UNIT ( .MILLI., .METRE. ) );
#152 = ADVANCED_FACE ( 'NONE', ( #111, #135 ), #2, .T. ) ;
#153 = ORIENTED_EDGE ( 'NONE', *, *, #235, .F. ) ;
#154 = CARTESIAN_POINT ( 'NONE',  ( 9.000000000000000000, 1.102182119232617714E-15, 7.000000000000000000 ) ) ;
#155 = FACE_OUTER_BOUND ( 'NONE', #298, .T. ) ;
#156 = ORIENTED_EDGE ( 'NONE', *, *, #161, .F. ) ;
#157 = ORIENTED_EDGE ( 'NONE', *, *, #218, .F. ) ;
#158 = CARTESIAN_POINT ( 'NONE',  ( 6.200000000000001066, 0.000000000000000000, 7.200000000000011724 ) ) ;
#159 = CIRCLE ( 'NONE', #64, 0.1999999999999996503 ) ;
#160 = CARTESIAN_POINT ( 'NONE',  ( 0.000000000000000000, 0.000000000000000000, 7.200000000000011724 ) ) ;
#161 = EDGE_CURVE ( 'NONE', #203, #74, #211, .T. ) ;
#162 = CARTESIAN_POINT ( 'NONE',  ( -6.200000000000001066, 7.592810154713590821E-16, 7.000000000000006217 ) ) ;
#163 = CARTESIAN_POINT ( 'NONE',  ( 0.000000000000000000, 0.000000000000000000, 207.0000000000000284 ) ) ;
#164 = FACE_OUTER_BOUND ( 'NONE', #169, .T. ) ;
#165 = PRODUCT_DEFINITION_FORMATION_WITH_SPECIFIED_SOURCE ( 'LIBOVOLNÝ', '', #227, .NOT_KNOWN. ) ;
#166 = DIRECTION ( 'NONE',  ( 1.000000000000000000, 0.000000000000000000, 0.000000000000000000 ) ) ;
#167 = DATE_AND_TIME ( #28, #66 ) ;
#168 = ORIENTED_EDGE ( 'NONE', *, *, #69, .T. ) ;
#169 = EDGE_LOOP ( 'NONE', ( #232, #10, #221, #156 ) ) ;
#170 = APPROVAL ( #7, 'NEURÈENÝ' ) ;
#171 = CALENDAR_DATE ( 2022, 7, 7 ) ;
#172 = PERSON ( 'NEURÈENÝ', 'NEURÈENÝ', 'NEURÈENÝ', ('NEURÈENÝ'), ('NEURÈENÝ'), ('NEURÈENÝ') ) ;
#173 = PERSON_AND_ORGANIZATION ( #172, #267 ) ;
#174 = AXIS2_PLACEMENT_3D ( 'NONE', #214, #85, #44 ) ;
#175 = VECTOR ( 'NONE', #186, 1000.000000000000000 ) ;
#176 = LOCAL_TIME ( 14, 23, 39.00000000000000000, #116 ) ;
#177 = DIRECTION ( 'NONE',  ( -1.000000000000000000, 1.224646799147353454E-16, 0.000000000000000000 ) ) ;
#178 = CARTESIAN_POINT ( 'NONE',  ( 6.200000000000001066, 0.000000000000000000, 7.000000000000006217 ) ) ;
#179 = ORIENTED_EDGE ( 'NONE', *, *, #93, .F. ) ;
#180 = ORIENTED_EDGE ( 'NONE', *, *, #235, .T. ) ;
#181 = SHAPE_DEFINITION_REPRESENTATION ( #299, #215 ) ;
#182 = DIRECTION ( 'NONE',  ( 0.000000000000000000, 0.000000000000000000, 1.000000000000000000 ) ) ;
#183 = ADVANCED_FACE ( 'NONE', ( #284 ), #282, .F. ) ;
#184 = LINE ( 'NONE', #48, #38 ) ;
#185 = DIRECTION ( 'NONE',  ( 0.000000000000000000, 0.000000000000000000, 1.000000000000000000 ) ) ;
#186 = DIRECTION ( 'NONE',  ( -0.000000000000000000, -0.000000000000000000, -1.000000000000000000 ) ) ;
#187 = ADVANCED_FACE ( 'NONE', ( #164 ), #262, .T. ) ;
#188 = CARTESIAN_POINT ( 'NONE',  ( 0.000000000000000000, 0.000000000000000000, 0.000000000000000000 ) ) ;
#189 = CC_DESIGN_PERSON_AND_ORGANIZATION_ASSIGNMENT ( #223, #3, ( #212 ) ) ;
#190 = AXIS2_PLACEMENT_3D ( 'NONE', #36, #182, #124 ) ;
#191 = DIRECTION ( 'NONE',  ( 1.000000000000000000, 0.000000000000000000, 0.000000000000000000 ) ) ;
#192 = EDGE_CURVE ( 'NONE', #117, #74, #31, .T. ) ;
#193 = DATE_TIME_ROLE ( 'classification_date' ) ;
#194 = APPLICATION_PROTOCOL_DEFINITION ( 'international standard', 'config_control_design', 1994, #118 ) ;
#195 = CARTESIAN_POINT ( 'NONE',  ( 0.000000000000000000, 0.000000000000000000, 0.000000000000000000 ) ) ;
#196 = PERSON_AND_ORGANIZATION ( #172, #267 ) ;
#197 = ORIENTED_EDGE ( 'NONE', *, *, #286, .F. ) ;
#198 = EDGE_LOOP ( 'NONE', ( #294, #297, #37, #8 ) ) ;
#199 = LOCAL_TIME ( 14, 23, 39.00000000000000000, #73 ) ;
#200 = CC_DESIGN_PERSON_AND_ORGANIZATION_ASSIGNMENT ( #196, #293, ( #165 ) ) ;
#201 = DIRECTION ( 'NONE',  ( 0.000000000000000000, -1.000000000000000000, 0.000000000000000000 ) ) ;
#202 = DIRECTION ( 'NONE',  ( 0.000000000000000000, 0.000000000000000000, 1.000000000000000000 ) ) ;
#203 = VERTEX_POINT ( 'NONE', #259 ) ;
#204 = AXIS2_PLACEMENT_3D ( 'NONE', #42, #15, #256 ) ;
#205 = CC_DESIGN_APPROVAL ( #260, ( #165 ) ) ;
#206 = DIRECTION ( 'NONE',  ( 1.000000000000000000, 0.000000000000000000, 0.000000000000000000 ) ) ;
#207 = DIRECTION ( 'NONE',  ( -0.000000000000000000, -0.000000000000000000, -1.000000000000000000 ) ) ;
#208 = UNCERTAINTY_MEASURE_WITH_UNIT (LENGTH_MEASURE( 1.000000000000000082E-05 ), #151, 'distance_accuracy_value', 'NONE');
#209 = DIRECTION ( 'NONE',  ( -1.000000000000000000, 0.000000000000000000, 0.000000000000000000 ) ) ;
#210 = AXIS2_PLACEMENT_3D ( 'NONE', #304, #263, #67 ) ;
#211 = LINE ( 'NONE', #47, #46 ) ;
#212 = SECURITY_CLASSIFICATION ( '', '', #120 ) ;
#213 = CARTESIAN_POINT ( 'NONE',  ( -9.000000000000000000, 0.000000000000000000, 7.000000000000000000 ) ) ;
#214 = CARTESIAN_POINT ( 'NONE',  ( 0.000000000000000000, 0.000000000000000000, 7.000000000000000000 ) ) ;
#215 = ADVANCED_BREP_SHAPE_REPRESENTATION ( '3fab', ( #240, #107 ), #242 ) ;
#216 = PERSON_AND_ORGANIZATION ( #172, #267 ) ;
#217 = CIRCLE ( 'NONE', #77, 6.200000000000001066 ) ;
#218 = EDGE_CURVE ( 'NONE', #291, #41, #290, .T. ) ;
#219 = PERSON_AND_ORGANIZATION ( #172, #267 ) ;
#220 = ORIENTED_EDGE ( 'NONE', *, *, #100, .T. ) ;
#221 = ORIENTED_EDGE ( 'NONE', *, *, #192, .T. ) ;
#222 = AXIS2_PLACEMENT_3D ( 'NONE', #54, #255, #13 ) ;
#223 = PERSON_AND_ORGANIZATION ( #172, #267 ) ;
#224 = AXIS2_PLACEMENT_3D ( 'NONE', #18, #138, #264 ) ;
#225 = DATE_AND_TIME ( #250, #230 ) ;
#226 = ORIENTED_EDGE ( 'NONE', *, *, #218, .T. ) ;
#227 = PRODUCT ( '3fab', '3fab', '', ( #270 ) ) ;
#228 = EDGE_CURVE ( 'NONE', #74, #117, #106, .T. ) ;
#229 = VERTEX_POINT ( 'NONE', #162 ) ;
#230 = LOCAL_TIME ( 14, 23, 39.00000000000000000, #98 ) ;
#231 = EDGE_LOOP ( 'NONE', ( #82, #14 ) ) ;
#232 = ORIENTED_EDGE ( 'NONE', *, *, #87, .F. ) ;
#233 = APPROVAL_DATE_TIME ( #127, #170 ) ;
#234 = CARTESIAN_POINT ( 'NONE',  ( -6.000000000000000888, 0.000000000000000000, 7.200000000000011724 ) ) ;
#235 = EDGE_CURVE ( 'NONE', #41, #141, #241, .T. ) ;
#236 = AXIS2_PLACEMENT_3D ( 'NONE', #283, #63, #238 ) ;
#237 = ORIENTED_EDGE ( 'NONE', *, *, #161, .T. ) ;
#238 = DIRECTION ( 'NONE',  ( 1.000000000000000000, 0.000000000000000000, 0.000000000000000000 ) ) ;
#239 = CARTESIAN_POINT ( 'NONE',  ( 0.000000000000000000, 0.000000000000000000, 7.000000000000000000 ) ) ;
#240 = MANIFOLD_SOLID_BREP ( 'Zaoblit1', #94 ) ;
#241 = LINE ( 'NONE', #285, #175 ) ;
#242 =( GEOMETRIC_REPRESENTATION_CONTEXT ( 3 ) GLOBAL_UNCERTAINTY_ASSIGNED_CONTEXT ( ( #208 ) ) GLOBAL_UNIT_ASSIGNED_CONTEXT ( ( #151, #266, #51 ) ) REPRESENTATION_CONTEXT ( 'NONE', 'WORKASPACE' ) );
#243 = DIRECTION ( 'NONE',  ( 0.000000000000000000, 0.000000000000000000, 1.000000000000000000 ) ) ;
#244 = DIRECTION ( 'NONE',  ( -0.000000000000000000, -0.000000000000000000, -1.000000000000000000 ) ) ;
#245 = ADVANCED_FACE ( 'NONE', ( #134 ), #133, .T. ) ;
#246 = COORDINATED_UNIVERSAL_TIME_OFFSET ( 1, 0, .AHEAD. ) ;
#247 = ORIENTED_EDGE ( 'NONE', *, *, #286, .T. ) ;
#248 = ORIENTED_EDGE ( 'NONE', *, *, #265, .T. ) ;
#249 = EDGE_CURVE ( 'NONE', #229, #72, #306, .T. ) ;
#250 = CALENDAR_DATE ( 2022, 7, 7 ) ;
#251 = ORIENTED_EDGE ( 'NONE', *, *, #137, .F. ) ;
#252 = PERSON_AND_ORGANIZATION ( #172, #267 ) ;
#253 = DIRECTION ( 'NONE',  ( 0.000000000000000000, 0.000000000000000000, 1.000000000000000000 ) ) ;
#254 = PLANE ( 'NONE',  #204 ) ;
#255 = DIRECTION ( 'NONE',  ( 0.000000000000000000, 0.000000000000000000, 1.000000000000000000 ) ) ;
#256 = DIRECTION ( 'NONE',  ( 1.000000000000000000, 0.000000000000000000, -0.000000000000000000 ) ) ;
#257 = DIRECTION ( 'NONE',  ( 0.000000000000000000, 0.000000000000000000, -1.000000000000000000 ) ) ;
#258 = AXIS2_PLACEMENT_3D ( 'NONE', #136, #113, #166 ) ;
#259 = CARTESIAN_POINT ( 'NONE',  ( -6.000000000000000888, 0.000000000000000000, 207.0000000000000284 ) ) ;
#260 = APPROVAL ( #29, 'NEURÈENÝ' ) ;
#261 = DIRECTION ( 'NONE',  ( 1.000000000000000000, 0.000000000000000000, 0.000000000000000000 ) ) ;
#262 = CYLINDRICAL_SURFACE ( 'NONE', #12, 6.000000000000000888 ) ;
#263 = DIRECTION ( 'NONE',  ( 0.000000000000000000, 0.000000000000000000, 1.000000000000000000 ) ) ;
#264 = DIRECTION ( 'NONE',  ( -1.000000000000000000, 0.000000000000000000, 0.000000000000000000 ) ) ;
#265 = EDGE_CURVE ( 'NONE', #72, #229, #217, .T. ) ;
#266 =( NAMED_UNIT ( * ) PLANE_ANGLE_UNIT ( ) SI_UNIT ( $, .RADIAN. ) );
#267 = ORGANIZATION ( 'NEURÈENÝ', 'NEURÈENÝ', '' ) ;
#268 = DIRECTION ( 'NONE',  ( 1.000000000000000000, 0.000000000000000000, 0.000000000000000000 ) ) ;
#269 = EDGE_LOOP ( 'NONE', ( #248, #70 ) ) ;
#270 = MECHANICAL_CONTEXT ( 'NONE', #56, 'mechanical' ) ;
#271 = ORIENTED_EDGE ( 'NONE', *, *, #273, .T. ) ;
#272 = ORIENTED_EDGE ( 'NONE', *, *, #296, .T. ) ;
#273 = EDGE_CURVE ( 'NONE', #291, #126, #184, .T. ) ;
#274 = CARTESIAN_POINT ( 'NONE',  ( 9.000000000000000000, 1.102182119232617714E-15, 0.000000000000000000 ) ) ;
#275 = CARTESIAN_POINT ( 'NONE',  ( 6.000000000000000888, 7.347880794884120722E-16, 207.0000000000000284 ) ) ;
#276 = ORIENTED_EDGE ( 'NONE', *, *, #93, .T. ) ;
#277 = CARTESIAN_POINT ( 'NONE',  ( 0.000000000000000000, 0.000000000000000000, 207.0000000000000284 ) ) ;
#278 = FACE_OUTER_BOUND ( 'NONE', #128, .T. ) ;
#279 = TOROIDAL_SURFACE ( 'NONE', #222, 6.200000000000001066, 0.2000000000000000111 ) ;
#280 = CARTESIAN_POINT ( 'NONE',  ( 0.000000000000000000, 0.000000000000000000, 7.000000000000000000 ) ) ;
#281 = ADVANCED_FACE ( 'NONE', ( #20 ), #287, .F. ) ;
#282 = TOROIDAL_SURFACE ( 'NONE', #143, 6.200000000000001066, 0.2000000000000000111 ) ;
#283 = CARTESIAN_POINT ( 'NONE',  ( 0.000000000000000000, 0.000000000000000000, 7.000000000000000000 ) ) ;
#284 = FACE_OUTER_BOUND ( 'NONE', #301, .T. ) ;
#285 = CARTESIAN_POINT ( 'NONE',  ( 9.000000000000000000, 1.102182119232617714E-15, 7.000000000000000000 ) ) ;
#286 = EDGE_CURVE ( 'NONE', #41, #291, #302, .T. ) ;
#287 = PLANE ( 'NONE',  #210 ) ;
#288 = CC_DESIGN_PERSON_AND_ORGANIZATION_ASSIGNMENT ( #216, #5, ( #165 ) ) ;
#289 = DATE_TIME_ROLE ( 'creation_date' ) ;
#290 = CIRCLE ( 'NONE', #236, 9.000000000000000000 ) ;
#291 = VERTEX_POINT ( 'NONE', #213 ) ;
#292 = COORDINATED_UNIVERSAL_TIME_OFFSET ( 1, 0, .AHEAD. ) ;
#293 = PERSON_AND_ORGANIZATION_ROLE ( 'creator' ) ;
#294 = ORIENTED_EDGE ( 'NONE', *, *, #69, .F. ) ;
#295 = VECTOR ( 'NONE', #207, 1000.000000000000000 ) ;
#296 = EDGE_CURVE ( 'NONE', #141, #126, #131, .T. ) ;
#297 = ORIENTED_EDGE ( 'NONE', *, *, #192, .F. ) ;
#298 = EDGE_LOOP ( 'NONE', ( #276, #27 ) ) ;
#299 = PRODUCT_DEFINITION_SHAPE ( 'NONE', 'NONE',  #76 ) ;
#300 = CYLINDRICAL_SURFACE ( 'NONE', #130, 6.000000000000000888 ) ;
#301 = EDGE_LOOP ( 'NONE', ( #97, #168, #122, #251 ) ) ;
#302 = CIRCLE ( 'NONE', #258, 9.000000000000000000 ) ;
#303 = EDGE_LOOP ( 'NONE', ( #226, #247 ) ) ;
#304 = CARTESIAN_POINT ( 'NONE',  ( 0.000000000000000000, 0.000000000000000000, 0.000000000000000000 ) ) ;
#305 = DIRECTION ( 'NONE',  ( 0.000000000000000000, 0.000000000000000000, 1.000000000000000000 ) ) ;
#306 = CIRCLE ( 'NONE', #83, 6.200000000000001066 ) ;
#307 = FACE_OUTER_BOUND ( 'NONE', #146, .T. ) ;
ENDSEC;
END-ISO-10303-21;
