ISO-10303-21;
HEADER;
FILE_DESCRIPTION (( 'STEP AP203' ),
    '1' );
FILE_NAME ('b0ee.STEP',
    '2022-07-07T12:46:49',
    ( '' ),
    ( '' ),
    'SwSTEP 2.0',
    'SolidWorks 2019',
    '' );
FILE_SCHEMA (( 'CONFIG_CONTROL_DESIGN' ));
ENDSEC;

DATA;
#1 = DIRECTION ( 'NONE',  ( -0.000000000000000000, -0.000000000000000000, -1.000000000000000000 ) ) ;
#2 = CIRCLE ( 'NONE', #193, 5.000000000000000000 ) ;
#3 = ORIENTED_EDGE ( 'NONE', *, *, #157, .T. ) ;
#4 = DIRECTION ( 'NONE',  ( 1.000000000000000000, 0.000000000000000000, 0.000000000000000000 ) ) ;
#5 = CC_DESIGN_PERSON_AND_ORGANIZATION_ASSIGNMENT ( #155, #244, ( #242 ) ) ;
#6 = VERTEX_POINT ( 'NONE', #274 ) ;
#7 = DIRECTION ( 'NONE',  ( 0.000000000000000000, 0.000000000000000000, 1.000000000000000000 ) ) ;
#8 = ORIENTED_EDGE ( 'NONE', *, *, #41, .T. ) ;
#9 = CARTESIAN_POINT ( 'NONE',  ( -2.700000000000000178, 3.306546357697853733E-16, 3.200000000000008171 ) ) ;
#10 = CIRCLE ( 'NONE', #113, 2.500000000000000000 ) ;
#11 = DIRECTION ( 'NONE',  ( -0.000000000000000000, -0.000000000000000000, -1.000000000000000000 ) ) ;
#12 = PERSON_AND_ORGANIZATION ( #104, #47 ) ;
#13 = ORIENTED_EDGE ( 'NONE', *, *, #123, .T. ) ;
#14 =( NAMED_UNIT ( * ) PLANE_ANGLE_UNIT ( ) SI_UNIT ( $, .RADIAN. ) );
#15 = AXIS2_PLACEMENT_3D ( 'NONE', #256, #258, #69 ) ;
#16 = AXIS2_PLACEMENT_3D ( 'NONE', #266, #60, #110 ) ;
#17 = CARTESIAN_POINT ( 'NONE',  ( -2.700000000000000178, 3.306546357697853733E-16, 3.000000000000004441 ) ) ;
#18 = CALENDAR_DATE ( 2022, 7, 7 ) ;
#19 = VECTOR ( 'NONE', #232, 1000.000000000000000 ) ;
#20 = ADVANCED_FACE ( 'NONE', ( #90 ), #42, .F. ) ;
#21 = FACE_OUTER_BOUND ( 'NONE', #209, .T. ) ;
#22 = FACE_BOUND ( 'NONE', #126, .T. ) ;
#23 = COORDINATED_UNIVERSAL_TIME_OFFSET ( 1, 0, .AHEAD. ) ;
#24 = DIRECTION ( 'NONE',  ( 1.000000000000000000, 0.000000000000000000, -0.000000000000000000 ) ) ;
#25 = AXIS2_PLACEMENT_3D ( 'NONE', #129, #144, #29 ) ;
#26 = APPLICATION_CONTEXT ( 'configuration controlled 3d designs of mechanical parts and assemblies' ) ;
#27 = CARTESIAN_POINT ( 'NONE',  ( 0.000000000000000000, 0.000000000000000000, 3.000000000000000000 ) ) ;
#28 = DIRECTION ( 'NONE',  ( 0.000000000000000000, 0.000000000000000000, 1.000000000000000000 ) ) ;
#29 = DIRECTION ( 'NONE',  ( 1.000000000000000000, 0.000000000000000000, 0.000000000000000000 ) ) ;
#30 = EDGE_CURVE ( 'NONE', #278, #236, #181, .T. ) ;
#31 = EDGE_LOOP ( 'NONE', ( #121, #215, #182, #118 ) ) ;
#32 = CARTESIAN_POINT ( 'NONE',  ( 2.700000000000000178, 0.000000000000000000, 3.000000000000004441 ) ) ;
#33 = CARTESIAN_POINT ( 'NONE',  ( -5.000000000000000000, 0.000000000000000000, 0.000000000000000000 ) ) ;
#34 = DIRECTION ( 'NONE',  ( 1.000000000000000000, 0.000000000000000000, 0.000000000000000000 ) ) ;
#35 = DIRECTION ( 'NONE',  ( 1.000000000000000000, 0.000000000000000000, 0.000000000000000000 ) ) ;
#36 = CLOSED_SHELL ( 'NONE', ( #20, #263, #170, #207, #72, #137, #296, #46, #92 ) ) ;
#37 = PRODUCT_DEFINITION_FORMATION_WITH_SPECIFIED_SOURCE ( 'LIBOVOLNÝ', '', #286, .NOT_KNOWN. ) ;
#38 = CARTESIAN_POINT ( 'NONE',  ( 0.000000000000000000, 0.000000000000000000, 163.0000000000000000 ) ) ;
#39 = COORDINATED_UNIVERSAL_TIME_OFFSET ( 1, 0, .AHEAD. ) ;
#40 = CARTESIAN_POINT ( 'NONE',  ( 0.000000000000000000, 0.000000000000000000, 0.000000000000000000 ) ) ;
#41 = EDGE_CURVE ( 'NONE', #6, #54, #10, .T. ) ;
#42 = TOROIDAL_SURFACE ( 'NONE', #235, 2.700000000000000178, 0.2000000000000000111 ) ;
#43 = CIRCLE ( 'NONE', #25, 2.700000000000000178 ) ;
#44 = COORDINATED_UNIVERSAL_TIME_OFFSET ( 1, 0, .AHEAD. ) ;
#45 = APPLICATION_CONTEXT ( 'configuration controlled 3d designs of mechanical parts and assemblies' ) ;
#46 = ADVANCED_FACE ( 'NONE', ( #168 ), #97, .T. ) ;
#47 = ORGANIZATION ( 'NEURÈENÝ', 'NEURÈENÝ', '' ) ;
#48 = EDGE_LOOP ( 'NONE', ( #52, #96, #255, #231 ) ) ;
#49 = DATE_AND_TIME ( #250, #125 ) ;
#50 = ORIENTED_EDGE ( 'NONE', *, *, #188, .T. ) ;
#51 = EDGE_CURVE ( 'NONE', #54, #6, #239, .T. ) ;
#52 = ORIENTED_EDGE ( 'NONE', *, *, #123, .F. ) ;
#53 = AXIS2_PLACEMENT_3D ( 'NONE', #27, #11, #78 ) ;
#54 = VERTEX_POINT ( 'NONE', #55 ) ;
#55 = CARTESIAN_POINT ( 'NONE',  ( 2.500000000000000000, 3.061616997868383141E-16, 3.200000000000008171 ) ) ;
#56 = DIRECTION ( 'NONE',  ( -0.000000000000000000, -0.000000000000000000, -1.000000000000000000 ) ) ;
#57 = AXIS2_PLACEMENT_3D ( 'NONE', #300, #76, #34 ) ;
#58 = DIRECTION ( 'NONE',  ( 1.224646799147353207E-16, 1.000000000000000000, -0.000000000000000000 ) ) ;
#59 = DIRECTION ( 'NONE',  ( 1.000000000000000000, 0.000000000000000000, 0.000000000000000000 ) ) ;
#60 = DIRECTION ( 'NONE',  ( -0.000000000000000000, -0.000000000000000000, -1.000000000000000000 ) ) ;
#61 = EDGE_CURVE ( 'NONE', #210, #221, #252, .T. ) ;
#62 = APPROVAL_STATUS ( 'not_yet_approved' ) ;
#63 = APPROVAL_DATE_TIME ( #82, #267 ) ;
#64 = APPLICATION_PROTOCOL_DEFINITION ( 'international standard', 'config_control_design', 1994, #45 ) ;
#65 = CALENDAR_DATE ( 2022, 7, 7 ) ;
#66 = PERSON_AND_ORGANIZATION_ROLE ( 'creator' ) ;
#67 = CARTESIAN_POINT ( 'NONE',  ( 0.000000000000000000, 0.000000000000000000, 3.200000000000008171 ) ) ;
#68 = DATE_AND_TIME ( #65, #114 ) ;
#69 = DIRECTION ( 'NONE',  ( 1.000000000000000000, 0.000000000000000000, 0.000000000000000000 ) ) ;
#70 = DIRECTION ( 'NONE',  ( 0.000000000000000000, 0.000000000000000000, 1.000000000000000000 ) ) ;
#71 = EDGE_LOOP ( 'NONE', ( #264, #189 ) ) ;
#72 = ADVANCED_FACE ( 'NONE', ( #22, #205 ), #204, .T. ) ;
#73 = VERTEX_POINT ( 'NONE', #165 ) ;
#74 = DIRECTION ( 'NONE',  ( 0.000000000000000000, 0.000000000000000000, 1.000000000000000000 ) ) ;
#75 = ADVANCED_BREP_SHAPE_REPRESENTATION ( 'b0ee', ( #306, #84 ), #88 ) ;
#76 = DIRECTION ( 'NONE',  ( 0.000000000000000000, 0.000000000000000000, 1.000000000000000000 ) ) ;
#77 = ORIENTED_EDGE ( 'NONE', *, *, #223, .F. ) ;
#78 = DIRECTION ( 'NONE',  ( 1.000000000000000000, 0.000000000000000000, 0.000000000000000000 ) ) ;
#79 = PRODUCT_DEFINITION_SHAPE ( 'NONE', 'NONE',  #242 ) ;
#80 = DIRECTION ( 'NONE',  ( -0.000000000000000000, -0.000000000000000000, -1.000000000000000000 ) ) ;
#81 = PERSON_AND_ORGANIZATION ( #104, #47 ) ;
#82 = DATE_AND_TIME ( #18, #105 ) ;
#83 = CIRCLE ( 'NONE', #288, 2.500000000000000000 ) ;
#84 = AXIS2_PLACEMENT_3D ( 'NONE', #40, #269, #35 ) ;
#85 = DIRECTION ( 'NONE',  ( -0.000000000000000000, -0.000000000000000000, -1.000000000000000000 ) ) ;
#86 =( NAMED_UNIT ( * ) SI_UNIT ( $, .STERADIAN. ) SOLID_ANGLE_UNIT ( ) );
#87 = AXIS2_PLACEMENT_3D ( 'NONE', #124, #192, #4 ) ;
#88 =( GEOMETRIC_REPRESENTATION_CONTEXT ( 3 ) GLOBAL_UNCERTAINTY_ASSIGNED_CONTEXT ( ( #111 ) ) GLOBAL_UNIT_ASSIGNED_CONTEXT ( ( #202, #14, #86 ) ) REPRESENTATION_CONTEXT ( 'NONE', 'WORKASPACE' ) );
#89 = DATE_TIME_ROLE ( 'classification_date' ) ;
#90 = FACE_OUTER_BOUND ( 'NONE', #143, .T. ) ;
#91 = APPROVAL_DATE_TIME ( #49, #203 ) ;
#92 = ADVANCED_FACE ( 'NONE', ( #21 ), #120, .F. ) ;
#93 = ORIENTED_EDGE ( 'NONE', *, *, #41, .F. ) ;
#94 = CIRCLE ( 'NONE', #146, 0.2000000000000000944 ) ;
#95 = ORIENTED_EDGE ( 'NONE', *, *, #61, .T. ) ;
#96 = ORIENTED_EDGE ( 'NONE', *, *, #280, .T. ) ;
#97 = PLANE ( 'NONE',  #279 ) ;
#98 = CIRCLE ( 'NONE', #268, 5.000000000000000000 ) ;
#99 = FACE_OUTER_BOUND ( 'NONE', #172, .T. ) ;
#100 = CARTESIAN_POINT ( 'NONE',  ( 0.000000000000000000, 0.000000000000000000, 163.0000000000000000 ) ) ;
#101 = ORIENTED_EDGE ( 'NONE', *, *, #188, .F. ) ;
#102 = CARTESIAN_POINT ( 'NONE',  ( 0.000000000000000000, 0.000000000000000000, 0.000000000000000000 ) ) ;
#103 = EDGE_CURVE ( 'NONE', #305, #128, #158, .T. ) ;
#104 = PERSON ( 'NEURÈENÝ', 'NEURÈENÝ', 'NEURÈENÝ', ('NEURÈENÝ'), ('NEURÈENÝ'), ('NEURÈENÝ') ) ;
#105 = LOCAL_TIME ( 14, 46, 49.00000000000000000, #44 ) ;
#106 = DIRECTION ( 'NONE',  ( -1.000000000000000000, 1.224646799147353207E-16, 0.000000000000000000 ) ) ;
#107 = DIRECTION ( 'NONE',  ( -1.000000000000000000, 0.000000000000000000, 0.000000000000000000 ) ) ;
#108 = EDGE_CURVE ( 'NONE', #236, #221, #185, .T. ) ;
#109 = DATE_AND_TIME ( #133, #153 ) ;
#110 = DIRECTION ( 'NONE',  ( -1.000000000000000000, 0.000000000000000000, 0.000000000000000000 ) ) ;
#111 = UNCERTAINTY_MEASURE_WITH_UNIT (LENGTH_MEASURE( 1.000000000000000082E-05 ), #202, 'distance_accuracy_value', 'NONE');
#112 = LINE ( 'NONE', #195, #294 ) ;
#113 = AXIS2_PLACEMENT_3D ( 'NONE', #67, #282, #162 ) ;
#114 = LOCAL_TIME ( 14, 46, 49.00000000000000000, #245 ) ;
#115 = PERSON_AND_ORGANIZATION ( #104, #47 ) ;
#116 = DIRECTION ( 'NONE',  ( 1.000000000000000000, 0.000000000000000000, -0.000000000000000000 ) ) ;
#117 = EDGE_CURVE ( 'NONE', #221, #236, #98, .T. ) ;
#118 = ORIENTED_EDGE ( 'NONE', *, *, #61, .F. ) ;
#119 = ORIENTED_EDGE ( 'NONE', *, *, #157, .F. ) ;
#120 = TOROIDAL_SURFACE ( 'NONE', #57, 2.700000000000000178, 0.2000000000000000111 ) ;
#121 = ORIENTED_EDGE ( 'NONE', *, *, #233, .F. ) ;
#122 = ORIENTED_EDGE ( 'NONE', *, *, #108, .F. ) ;
#123 = EDGE_CURVE ( 'NONE', #73, #149, #225, .T. ) ;
#124 = CARTESIAN_POINT ( 'NONE',  ( 0.000000000000000000, 0.000000000000000000, 163.0000000000000000 ) ) ;
#125 = LOCAL_TIME ( 14, 46, 49.00000000000000000, #272 ) ;
#126 = EDGE_LOOP ( 'NONE', ( #284, #131 ) ) ;
#127 = DIRECTION ( 'NONE',  ( 0.000000000000000000, 0.000000000000000000, 1.000000000000000000 ) ) ;
#128 = VERTEX_POINT ( 'NONE', #32 ) ;
#129 = CARTESIAN_POINT ( 'NONE',  ( 0.000000000000000000, 0.000000000000000000, 3.000000000000000000 ) ) ;
#130 = CARTESIAN_POINT ( 'NONE',  ( -5.000000000000000000, 0.000000000000000000, 3.000000000000000000 ) ) ;
#131 = ORIENTED_EDGE ( 'NONE', *, *, #103, .T. ) ;
#132 = EDGE_CURVE ( 'NONE', #210, #278, #303, .T. ) ;
#133 = CALENDAR_DATE ( 2022, 7, 7 ) ;
#134 = PERSON_AND_ORGANIZATION ( #104, #47 ) ;
#135 = LINE ( 'NONE', #297, #200 ) ;
#136 = CC_DESIGN_PERSON_AND_ORGANIZATION_ASSIGNMENT ( #275, #227, ( #187 ) ) ;
#137 = ADVANCED_FACE ( 'NONE', ( #99 ), #214, .F. ) ;
#138 = ORIENTED_EDGE ( 'NONE', *, *, #201, .F. ) ;
#139 = SHAPE_DEFINITION_REPRESENTATION ( #79, #75 ) ;
#140 = ORIENTED_EDGE ( 'NONE', *, *, #132, .F. ) ;
#141 = VECTOR ( 'NONE', #1, 1000.000000000000000 ) ;
#142 = CC_DESIGN_APPROVAL ( #203, ( #187 ) ) ;
#143 = EDGE_LOOP ( 'NONE', ( #93, #304, #77, #101 ) ) ;
#144 = DIRECTION ( 'NONE',  ( -0.000000000000000000, -0.000000000000000000, -1.000000000000000000 ) ) ;
#145 = CARTESIAN_POINT ( 'NONE',  ( 0.000000000000000000, 0.000000000000000000, 3.000000000000000000 ) ) ;
#146 = AXIS2_PLACEMENT_3D ( 'NONE', #285, #171, #150 ) ;
#147 = ORIENTED_EDGE ( 'NONE', *, *, #30, .F. ) ;
#148 = DIRECTION ( 'NONE',  ( 1.000000000000000000, 0.000000000000000000, -0.000000000000000000 ) ) ;
#149 = VERTEX_POINT ( 'NONE', #259 ) ;
#150 = DIRECTION ( 'NONE',  ( 0.000000000000000000, 0.000000000000000000, -1.000000000000000000 ) ) ;
#151 = FACE_OUTER_BOUND ( 'NONE', #277, .T. ) ;
#152 = CYLINDRICAL_SURFACE ( 'NONE', #16, 2.500000000000000000 ) ;
#153 = LOCAL_TIME ( 14, 46, 49.00000000000000000, #39 ) ;
#154 = APPLICATION_PROTOCOL_DEFINITION ( 'international standard', 'config_control_design', 1994, #26 ) ;
#155 = PERSON_AND_ORGANIZATION ( #104, #47 ) ;
#156 = MECHANICAL_CONTEXT ( 'NONE', #26, 'mechanical' ) ;
#157 = EDGE_CURVE ( 'NONE', #149, #73, #83, .T. ) ;
#158 = CIRCLE ( 'NONE', #53, 2.700000000000000178 ) ;
#159 = AXIS2_PLACEMENT_3D ( 'NONE', #243, #80, #290 ) ;
#160 = DATE_AND_TIME ( #229, #251 ) ;
#161 = CC_DESIGN_SECURITY_CLASSIFICATION ( #187, ( #37 ) ) ;
#162 = DIRECTION ( 'NONE',  ( 1.000000000000000000, 0.000000000000000000, 0.000000000000000000 ) ) ;
#163 = APPROVAL_ROLE ( '' ) ;
#164 = CARTESIAN_POINT ( 'NONE',  ( -5.000000000000000000, 0.000000000000000000, 3.000000000000000000 ) ) ;
#165 = CARTESIAN_POINT ( 'NONE',  ( 2.500000000000000000, 3.061616997868383141E-16, 163.0000000000000000 ) ) ;
#166 = ORIENTED_EDGE ( 'NONE', *, *, #117, .T. ) ;
#167 = AXIS2_PLACEMENT_3D ( 'NONE', #38, #85, #107 ) ;
#168 = FACE_OUTER_BOUND ( 'NONE', #260, .T. ) ;
#169 = CYLINDRICAL_SURFACE ( 'NONE', #261, 5.000000000000000000 ) ;
#170 = ADVANCED_FACE ( 'NONE', ( #262 ), #169, .T. ) ;
#171 = DIRECTION ( 'NONE',  ( 0.000000000000000000, -1.000000000000000000, 0.000000000000000000 ) ) ;
#172 = EDGE_LOOP ( 'NONE', ( #292, #122 ) ) ;
#173 = DIRECTION ( 'NONE',  ( 1.000000000000000000, 0.000000000000000000, 0.000000000000000000 ) ) ;
#174 = CYLINDRICAL_SURFACE ( 'NONE', #167, 2.500000000000000000 ) ;
#175 = CC_DESIGN_PERSON_AND_ORGANIZATION_ASSIGNMENT ( #12, #291, ( #286 ) ) ;
#176 = FACE_OUTER_BOUND ( 'NONE', #48, .T. ) ;
#177 = DIRECTION ( 'NONE',  ( -0.000000000000000000, -0.000000000000000000, -1.000000000000000000 ) ) ;
#178 = AXIS2_PLACEMENT_3D ( 'NONE', #217, #127, #241 ) ;
#179 = CARTESIAN_POINT ( 'NONE',  ( 0.000000000000000000, 0.000000000000000000, 3.200000000000008171 ) ) ;
#180 = PERSON_AND_ORGANIZATION ( #104, #47 ) ;
#181 = LINE ( 'NONE', #276, #141 ) ;
#182 = ORIENTED_EDGE ( 'NONE', *, *, #108, .T. ) ;
#183 = CC_DESIGN_PERSON_AND_ORGANIZATION_ASSIGNMENT ( #180, #248, ( #37 ) ) ;
#184 = DIRECTION ( 'NONE',  ( 1.000000000000000000, 0.000000000000000000, 0.000000000000000000 ) ) ;
#185 = CIRCLE ( 'NONE', #230, 5.000000000000000000 ) ;
#186 = CARTESIAN_POINT ( 'NONE',  ( 0.000000000000000000, 0.000000000000000000, 163.0000000000000000 ) ) ;
#187 = SECURITY_CLASSIFICATION ( '', '', #301 ) ;
#188 = EDGE_CURVE ( 'NONE', #54, #128, #94, .T. ) ;
#189 = ORIENTED_EDGE ( 'NONE', *, *, #233, .T. ) ;
#190 = CARTESIAN_POINT ( 'NONE',  ( 0.000000000000000000, 0.000000000000000000, 0.000000000000000000 ) ) ;
#191 = CYLINDRICAL_SURFACE ( 'NONE', #159, 5.000000000000000000 ) ;
#192 = DIRECTION ( 'NONE',  ( 0.000000000000000000, 0.000000000000000000, 1.000000000000000000 ) ) ;
#193 = AXIS2_PLACEMENT_3D ( 'NONE', #145, #216, #222 ) ;
#194 = FACE_OUTER_BOUND ( 'NONE', #287, .T. ) ;
#195 = CARTESIAN_POINT ( 'NONE',  ( 2.500000000000000000, 3.061616997868383141E-16, 163.0000000000000000 ) ) ;
#196 = PRODUCT_RELATED_PRODUCT_CATEGORY ( 'detail', '', ( #286 ) ) ;
#197 = ORIENTED_EDGE ( 'NONE', *, *, #51, .F. ) ;
#198 = APPROVAL_ROLE ( '' ) ;
#199 = DATE_TIME_ROLE ( 'creation_date' ) ;
#200 = VECTOR ( 'NONE', #177, 1000.000000000000000 ) ;
#201 = EDGE_CURVE ( 'NONE', #6, #305, #281, .T. ) ;
#202 =( LENGTH_UNIT ( ) NAMED_UNIT ( * ) SI_UNIT ( .MILLI., .METRE. ) );
#203 = APPROVAL ( #273, 'NEURÈENÝ' ) ;
#204 = PLANE ( 'NONE',  #246 ) ;
#205 = FACE_OUTER_BOUND ( 'NONE', #71, .T. ) ;
#206 = CC_DESIGN_APPROVAL ( #307, ( #37 ) ) ;
#207 = ADVANCED_FACE ( 'NONE', ( #194 ), #191, .T. ) ;
#208 = ORIENTED_EDGE ( 'NONE', *, *, #280, .F. ) ;
#209 = EDGE_LOOP ( 'NONE', ( #138, #197, #50, #257 ) ) ;
#210 = VERTEX_POINT ( 'NONE', #130 ) ;
#211 = DIRECTION ( 'NONE',  ( 0.000000000000000000, 0.000000000000000000, 1.000000000000000000 ) ) ;
#212 = APPROVAL_PERSON_ORGANIZATION ( #81, #267, #198 ) ;
#213 = ORIENTED_EDGE ( 'NONE', *, *, #249, .T. ) ;
#214 = PLANE ( 'NONE',  #218 ) ;
#215 = ORIENTED_EDGE ( 'NONE', *, *, #30, .T. ) ;
#216 = DIRECTION ( 'NONE',  ( 0.000000000000000000, 0.000000000000000000, 1.000000000000000000 ) ) ;
#217 = CARTESIAN_POINT ( 'NONE',  ( 0.000000000000000000, 0.000000000000000000, 3.000000000000000000 ) ) ;
#218 = AXIS2_PLACEMENT_3D ( 'NONE', #283, #7, #148 ) ;
#219 = CC_DESIGN_APPROVAL ( #267, ( #242 ) ) ;
#220 = CARTESIAN_POINT ( 'NONE',  ( 5.000000000000000000, 6.123233995736766282E-16, 0.000000000000000000 ) ) ;
#221 = VERTEX_POINT ( 'NONE', #33 ) ;
#222 = DIRECTION ( 'NONE',  ( 1.000000000000000000, 0.000000000000000000, 0.000000000000000000 ) ) ;
#223 = EDGE_CURVE ( 'NONE', #128, #305, #43, .T. ) ;
#224 = APPROVAL_ROLE ( '' ) ;
#225 = CIRCLE ( 'NONE', #87, 2.500000000000000000 ) ;
#226 = DESIGN_CONTEXT ( 'detailed design', #45, 'design' ) ;
#227 = PERSON_AND_ORGANIZATION_ROLE ( 'classification_officer' ) ;
#228 = CC_DESIGN_PERSON_AND_ORGANIZATION_ASSIGNMENT ( #253, #66, ( #37 ) ) ;
#229 = CALENDAR_DATE ( 2022, 7, 7 ) ;
#230 = AXIS2_PLACEMENT_3D ( 'NONE', #102, #211, #265 ) ;
#231 = ORIENTED_EDGE ( 'NONE', *, *, #249, .F. ) ;
#232 = DIRECTION ( 'NONE',  ( -0.000000000000000000, -0.000000000000000000, -1.000000000000000000 ) ) ;
#233 = EDGE_CURVE ( 'NONE', #278, #210, #2, .T. ) ;
#234 = DIRECTION ( 'NONE',  ( 0.000000000000000000, 0.000000000000000000, 1.000000000000000000 ) ) ;
#235 = AXIS2_PLACEMENT_3D ( 'NONE', #179, #28, #184 ) ;
#236 = VERTEX_POINT ( 'NONE', #220 ) ;
#237 = CC_DESIGN_DATE_AND_TIME_ASSIGNMENT ( #109, #199, ( #242 ) ) ;
#238 = DIRECTION ( 'NONE',  ( -1.000000000000000000, 0.000000000000000000, 0.000000000000000000 ) ) ;
#239 = CIRCLE ( 'NONE', #15, 2.500000000000000000 ) ;
#240 = DIRECTION ( 'NONE',  ( 0.000000000000000000, 0.000000000000000000, 1.000000000000000000 ) ) ;
#241 = DIRECTION ( 'NONE',  ( 1.000000000000000000, 0.000000000000000000, 0.000000000000000000 ) ) ;
#242 = PRODUCT_DEFINITION ( 'NEZNÁMÝ', '', #37, #226 ) ;
#243 = CARTESIAN_POINT ( 'NONE',  ( 0.000000000000000000, 0.000000000000000000, 3.000000000000000000 ) ) ;
#244 = PERSON_AND_ORGANIZATION_ROLE ( 'creator' ) ;
#245 = COORDINATED_UNIVERSAL_TIME_OFFSET ( 1, 0, .AHEAD. ) ;
#246 = AXIS2_PLACEMENT_3D ( 'NONE', #302, #234, #24 ) ;
#247 = APPROVAL_PERSON_ORGANIZATION ( #115, #203, #163 ) ;
#248 = PERSON_AND_ORGANIZATION_ROLE ( 'design_supplier' ) ;
#249 = EDGE_CURVE ( 'NONE', #149, #6, #135, .T. ) ;
#250 = CALENDAR_DATE ( 2022, 7, 7 ) ;
#251 = LOCAL_TIME ( 14, 46, 49.00000000000000000, #23 ) ;
#252 = LINE ( 'NONE', #164, #19 ) ;
#253 = PERSON_AND_ORGANIZATION ( #104, #47 ) ;
#254 = CC_DESIGN_DATE_AND_TIME_ASSIGNMENT ( #160, #89, ( #187 ) ) ;
#255 = ORIENTED_EDGE ( 'NONE', *, *, #51, .T. ) ;
#256 = CARTESIAN_POINT ( 'NONE',  ( 0.000000000000000000, 0.000000000000000000, 3.200000000000008171 ) ) ;
#257 = ORIENTED_EDGE ( 'NONE', *, *, #103, .F. ) ;
#258 = DIRECTION ( 'NONE',  ( 0.000000000000000000, 0.000000000000000000, 1.000000000000000000 ) ) ;
#259 = CARTESIAN_POINT ( 'NONE',  ( -2.500000000000000000, 0.000000000000000000, 163.0000000000000000 ) ) ;
#260 = EDGE_LOOP ( 'NONE', ( #3, #13 ) ) ;
#261 = AXIS2_PLACEMENT_3D ( 'NONE', #289, #56, #238 ) ;
#262 = FACE_OUTER_BOUND ( 'NONE', #31, .T. ) ;
#263 = ADVANCED_FACE ( 'NONE', ( #176 ), #174, .T. ) ;
#264 = ORIENTED_EDGE ( 'NONE', *, *, #132, .T. ) ;
#265 = DIRECTION ( 'NONE',  ( 1.000000000000000000, 0.000000000000000000, 0.000000000000000000 ) ) ;
#266 = CARTESIAN_POINT ( 'NONE',  ( 0.000000000000000000, 0.000000000000000000, 163.0000000000000000 ) ) ;
#267 = APPROVAL ( #62, 'NEURÈENÝ' ) ;
#268 = AXIS2_PLACEMENT_3D ( 'NONE', #190, #240, #59 ) ;
#269 = DIRECTION ( 'NONE',  ( 0.000000000000000000, 0.000000000000000000, 1.000000000000000000 ) ) ;
#270 = CARTESIAN_POINT ( 'NONE',  ( 5.000000000000000000, 6.123233995736766282E-16, 3.000000000000000000 ) ) ;
#271 = APPROVAL_PERSON_ORGANIZATION ( #134, #307, #224 ) ;
#272 = COORDINATED_UNIVERSAL_TIME_OFFSET ( 1, 0, .AHEAD. ) ;
#273 = APPROVAL_STATUS ( 'not_yet_approved' ) ;
#274 = CARTESIAN_POINT ( 'NONE',  ( -2.500000000000000000, 0.000000000000000000, 3.200000000000008171 ) ) ;
#275 = PERSON_AND_ORGANIZATION ( #104, #47 ) ;
#276 = CARTESIAN_POINT ( 'NONE',  ( 5.000000000000000000, 6.123233995736766282E-16, 3.000000000000000000 ) ) ;
#277 = EDGE_LOOP ( 'NONE', ( #208, #119, #213, #8 ) ) ;
#278 = VERTEX_POINT ( 'NONE', #270 ) ;
#279 = AXIS2_PLACEMENT_3D ( 'NONE', #186, #70, #116 ) ;
#280 = EDGE_CURVE ( 'NONE', #73, #54, #112, .T. ) ;
#281 = CIRCLE ( 'NONE', #298, 0.2000000000000000944 ) ;
#282 = DIRECTION ( 'NONE',  ( 0.000000000000000000, 0.000000000000000000, 1.000000000000000000 ) ) ;
#283 = CARTESIAN_POINT ( 'NONE',  ( 0.000000000000000000, 0.000000000000000000, 0.000000000000000000 ) ) ;
#284 = ORIENTED_EDGE ( 'NONE', *, *, #223, .T. ) ;
#285 = CARTESIAN_POINT ( 'NONE',  ( 2.700000000000000178, 0.000000000000000000, 3.200000000000008171 ) ) ;
#286 = PRODUCT ( 'b0ee', 'b0ee', '', ( #156 ) ) ;
#287 = EDGE_LOOP ( 'NONE', ( #147, #140, #95, #166 ) ) ;
#288 = AXIS2_PLACEMENT_3D ( 'NONE', #100, #74, #173 ) ;
#289 = CARTESIAN_POINT ( 'NONE',  ( 0.000000000000000000, 0.000000000000000000, 3.000000000000000000 ) ) ;
#290 = DIRECTION ( 'NONE',  ( -1.000000000000000000, 0.000000000000000000, 0.000000000000000000 ) ) ;
#291 = PERSON_AND_ORGANIZATION_ROLE ( 'design_owner' ) ;
#292 = ORIENTED_EDGE ( 'NONE', *, *, #117, .F. ) ;
#293 = DIRECTION ( 'NONE',  ( -0.000000000000000000, -0.000000000000000000, -1.000000000000000000 ) ) ;
#294 = VECTOR ( 'NONE', #293, 1000.000000000000000 ) ;
#295 = APPROVAL_STATUS ( 'not_yet_approved' ) ;
#296 = ADVANCED_FACE ( 'NONE', ( #151 ), #152, .T. ) ;
#297 = CARTESIAN_POINT ( 'NONE',  ( -2.500000000000000000, 0.000000000000000000, 163.0000000000000000 ) ) ;
#298 = AXIS2_PLACEMENT_3D ( 'NONE', #9, #58, #106 ) ;
#299 = APPROVAL_DATE_TIME ( #68, #307 ) ;
#300 = CARTESIAN_POINT ( 'NONE',  ( 0.000000000000000000, 0.000000000000000000, 3.200000000000008171 ) ) ;
#301 = SECURITY_CLASSIFICATION_LEVEL ( 'unclassified' ) ;
#302 = CARTESIAN_POINT ( 'NONE',  ( 0.000000000000000000, 0.000000000000000000, 3.000000000000000000 ) ) ;
#303 = CIRCLE ( 'NONE', #178, 5.000000000000000000 ) ;
#304 = ORIENTED_EDGE ( 'NONE', *, *, #201, .T. ) ;
#305 = VERTEX_POINT ( 'NONE', #17 ) ;
#306 = MANIFOLD_SOLID_BREP ( 'Zaoblit1', #36 ) ;
#307 = APPROVAL ( #295, 'NEURÈENÝ' ) ;
ENDSEC;
END-ISO-10303-21;
