ISO-10303-21;
HEADER;
FILE_DESCRIPTION (( 'STEP AP203' ),
    '1' );
FILE_NAME ('0803.STEP',
    '2022-07-07T12:47:48',
    ( '' ),
    ( '' ),
    'SwSTEP 2.0',
    'SolidWorks 2019',
    '' );
FILE_SCHEMA (( 'CONFIG_CONTROL_DESIGN' ));
ENDSEC;

DATA;
#1 = PERSON_AND_ORGANIZATION ( #297, #288 ) ;
#2 = FACE_OUTER_BOUND ( 'NONE', #232, .T. ) ;
#3 = APPROVAL ( #290, 'NEURÈENÝ' ) ;
#4 = DATE_AND_TIME ( #211, #238 ) ;
#5 = AXIS2_PLACEMENT_3D ( 'NONE', #216, #264, #168 ) ;
#6 = AXIS2_PLACEMENT_3D ( 'NONE', #122, #68, #92 ) ;
#7 = DIRECTION ( 'NONE',  ( 1.000000000000000000, 0.000000000000000000, 0.000000000000000000 ) ) ;
#8 = CARTESIAN_POINT ( 'NONE',  ( 0.000000000000000000, 0.000000000000000000, 3.000000000000000000 ) ) ;
#9 = PERSON_AND_ORGANIZATION ( #297, #288 ) ;
#10 = EDGE_CURVE ( 'NONE', #182, #267, #110, .T. ) ;
#11 = APPROVAL_ROLE ( '' ) ;
#12 = ORIENTED_EDGE ( 'NONE', *, *, #10, .T. ) ;
#13 = TOROIDAL_SURFACE ( 'NONE', #58, 2.449999999999999734, 0.2000000000000000111 ) ;
#14 = CC_DESIGN_PERSON_AND_ORGANIZATION_ASSIGNMENT ( #1, #118, ( #49 ) ) ;
#15 = AXIS2_PLACEMENT_3D ( 'NONE', #184, #187, #276 ) ;
#16 = PLANE ( 'NONE',  #51 ) ;
#17 = DIRECTION ( 'NONE',  ( 0.000000000000000000, 0.000000000000000000, 1.000000000000000000 ) ) ;
#18 =( LENGTH_UNIT ( ) NAMED_UNIT ( * ) SI_UNIT ( .MILLI., .METRE. ) );
#19 = ORIENTED_EDGE ( 'NONE', *, *, #293, .F. ) ;
#20 = LOCAL_TIME ( 14, 47, 48.00000000000000000, #177 ) ;
#21 = CARTESIAN_POINT ( 'NONE',  ( 0.000000000000000000, 0.000000000000000000, 318.0000000000000000 ) ) ;
#22 = PERSON_AND_ORGANIZATION ( #297, #288 ) ;
#23 = DIRECTION ( 'NONE',  ( 0.000000000000000000, 0.000000000000000000, 1.000000000000000000 ) ) ;
#24 = COORDINATED_UNIVERSAL_TIME_OFFSET ( 1, 0, .AHEAD. ) ;
#25 = PRODUCT_RELATED_PRODUCT_CATEGORY ( 'detail', '', ( #49 ) ) ;
#26 = DIRECTION ( 'NONE',  ( 1.000000000000000000, 0.000000000000000000, 0.000000000000000000 ) ) ;
#27 = CARTESIAN_POINT ( 'NONE',  ( 0.000000000000000000, 0.000000000000000000, 3.000000000000000000 ) ) ;
#28 = COORDINATED_UNIVERSAL_TIME_OFFSET ( 1, 0, .AHEAD. ) ;
#29 = LOCAL_TIME ( 14, 47, 48.00000000000000000, #28 ) ;
#30 = FACE_OUTER_BOUND ( 'NONE', #133, .T. ) ;
#31 = ORIENTED_EDGE ( 'NONE', *, *, #170, .T. ) ;
#32 = CALENDAR_DATE ( 2022, 7, 7 ) ;
#33 = CIRCLE ( 'NONE', #111, 0.2000000000000000944 ) ;
#34 = ORIENTED_EDGE ( 'NONE', *, *, #270, .F. ) ;
#35 = VERTEX_POINT ( 'NONE', #278 ) ;
#36 = CC_DESIGN_APPROVAL ( #123, ( #271 ) ) ;
#37 = DIRECTION ( 'NONE',  ( 0.000000000000000000, 0.000000000000000000, 1.000000000000000000 ) ) ;
#38 = CARTESIAN_POINT ( 'NONE',  ( 4.000000000000000000, 4.898587196589412829E-16, 3.000000000000000000 ) ) ;
#39 = ADVANCED_FACE ( 'NONE', ( #275 ), #249, .F. ) ;
#40 = EDGE_LOOP ( 'NONE', ( #79, #212, #205, #183 ) ) ;
#41 = APPROVAL_ROLE ( '' ) ;
#42 = CC_DESIGN_SECURITY_CLASSIFICATION ( #292, ( #271 ) ) ;
#43 = CARTESIAN_POINT ( 'NONE',  ( 0.000000000000000000, 0.000000000000000000, 318.0000000000000000 ) ) ;
#44 = CARTESIAN_POINT ( 'NONE',  ( 4.000000000000000000, 4.898587196589412829E-16, 0.000000000000000000 ) ) ;
#45 = EDGE_LOOP ( 'NONE', ( #305, #223, #117, #201 ) ) ;
#46 = FACE_OUTER_BOUND ( 'NONE', #116, .T. ) ;
#47 = CARTESIAN_POINT ( 'NONE',  ( 0.000000000000000000, 0.000000000000000000, 318.0000000000000000 ) ) ;
#48 = LINE ( 'NONE', #38, #247 ) ;
#49 = PRODUCT ( '0803', '0803', '', ( #235 ) ) ;
#50 = DIRECTION ( 'NONE',  ( 1.000000000000000000, 0.000000000000000000, 0.000000000000000000 ) ) ;
#51 = AXIS2_PLACEMENT_3D ( 'NONE', #43, #208, #207 ) ;
#52 = CARTESIAN_POINT ( 'NONE',  ( 0.000000000000000000, 0.000000000000000000, 3.000000000000000000 ) ) ;
#53 = DATE_AND_TIME ( #57, #29 ) ;
#54 = CIRCLE ( 'NONE', #90, 2.250000000000000000 ) ;
#55 = ORIENTED_EDGE ( 'NONE', *, *, #289, .F. ) ;
#56 = CC_DESIGN_DATE_AND_TIME_ASSIGNMENT ( #53, #244, ( #292 ) ) ;
#57 = CALENDAR_DATE ( 2022, 7, 7 ) ;
#58 = AXIS2_PLACEMENT_3D ( 'NONE', #171, #23, #146 ) ;
#59 = ORIENTED_EDGE ( 'NONE', *, *, #144, .T. ) ;
#60 = ADVANCED_FACE ( 'NONE', ( #257 ), #16, .T. ) ;
#61 = CC_DESIGN_APPROVAL ( #108, ( #181 ) ) ;
#62 = CARTESIAN_POINT ( 'NONE',  ( 0.000000000000000000, 0.000000000000000000, 3.000000000000000000 ) ) ;
#63 = CIRCLE ( 'NONE', #273, 4.000000000000000000 ) ;
#64 = CARTESIAN_POINT ( 'NONE',  ( 0.000000000000000000, 0.000000000000000000, 3.199999999999980638 ) ) ;
#65 = CIRCLE ( 'NONE', #302, 2.449999999999999734 ) ;
#66 = LINE ( 'NONE', #91, #202 ) ;
#67 = CARTESIAN_POINT ( 'NONE',  ( 0.000000000000000000, 0.000000000000000000, 0.000000000000000000 ) ) ;
#68 = DIRECTION ( 'NONE',  ( -0.000000000000000000, -0.000000000000000000, -1.000000000000000000 ) ) ;
#69 = VERTEX_POINT ( 'NONE', #119 ) ;
#70 = CIRCLE ( 'NONE', #228, 4.000000000000000000 ) ;
#71 = PERSON_AND_ORGANIZATION ( #297, #288 ) ;
#72 = CIRCLE ( 'NONE', #114, 0.2000000000000000944 ) ;
#73 = FACE_BOUND ( 'NONE', #287, .T. ) ;
#74 = DIRECTION ( 'NONE',  ( 1.000000000000000000, 0.000000000000000000, 0.000000000000000000 ) ) ;
#75 = AXIS2_PLACEMENT_3D ( 'NONE', #303, #233, #213 ) ;
#76 = CYLINDRICAL_SURFACE ( 'NONE', #5, 2.250000000000000000 ) ;
#77 = SHAPE_DEFINITION_REPRESENTATION ( #135, #178 ) ;
#78 = DIRECTION ( 'NONE',  ( -0.000000000000000000, -0.000000000000000000, -1.000000000000000000 ) ) ;
#79 = ORIENTED_EDGE ( 'NONE', *, *, #186, .F. ) ;
#80 = CC_DESIGN_DATE_AND_TIME_ASSIGNMENT ( #4, #230, ( #181 ) ) ;
#81 = DIRECTION ( 'NONE',  ( -0.000000000000000000, -0.000000000000000000, -1.000000000000000000 ) ) ;
#82 = APPLICATION_CONTEXT ( 'configuration controlled 3d designs of mechanical parts and assemblies' ) ;
#83 = CALENDAR_DATE ( 2022, 7, 7 ) ;
#84 = EDGE_CURVE ( 'NONE', #87, #132, #66, .T. ) ;
#85 = ORIENTED_EDGE ( 'NONE', *, *, #144, .F. ) ;
#86 = UNCERTAINTY_MEASURE_WITH_UNIT (LENGTH_MEASURE( 1.000000000000000082E-05 ), #18, 'distance_accuracy_value', 'NONE');
#87 = VERTEX_POINT ( 'NONE', #250 ) ;
#88 = CARTESIAN_POINT ( 'NONE',  ( -2.449999999999999734, 3.000384657911015370E-16, 2.999999999999990674 ) ) ;
#89 = ORIENTED_EDGE ( 'NONE', *, *, #84, .T. ) ;
#90 = AXIS2_PLACEMENT_3D ( 'NONE', #47, #234, #26 ) ;
#91 = CARTESIAN_POINT ( 'NONE',  ( -2.250000000000000000, 0.000000000000000000, 318.0000000000000000 ) ) ;
#92 = DIRECTION ( 'NONE',  ( -1.000000000000000000, 0.000000000000000000, 0.000000000000000000 ) ) ;
#93 = ORIENTED_EDGE ( 'NONE', *, *, #186, .T. ) ;
#94 = APPROVAL_ROLE ( '' ) ;
#95 = CC_DESIGN_APPROVAL ( #3, ( #292 ) ) ;
#96 = CARTESIAN_POINT ( 'NONE',  ( -4.000000000000000000, 0.000000000000000000, 3.000000000000000000 ) ) ;
#97 = LINE ( 'NONE', #127, #179 ) ;
#98 = CYLINDRICAL_SURFACE ( 'NONE', #251, 4.000000000000000000 ) ;
#99 = LOCAL_TIME ( 14, 47, 48.00000000000000000, #258 ) ;
#100 = CARTESIAN_POINT ( 'NONE',  ( 0.000000000000000000, 0.000000000000000000, 3.199999999999980638 ) ) ;
#101 = APPLICATION_CONTEXT ( 'configuration controlled 3d designs of mechanical parts and assemblies' ) ;
#102 = PLANE ( 'NONE',  #153 ) ;
#103 = EDGE_CURVE ( 'NONE', #175, #203, #70, .T. ) ;
#104 = DIRECTION ( 'NONE',  ( 0.000000000000000000, 0.000000000000000000, 1.000000000000000000 ) ) ;
#105 = DATE_AND_TIME ( #32, #20 ) ;
#106 = AXIS2_PLACEMENT_3D ( 'NONE', #157, #139, #272 ) ;
#107 = PERSON_AND_ORGANIZATION_ROLE ( 'creator' ) ;
#108 = APPROVAL ( #166, 'NEURÈENÝ' ) ;
#109 = VERTEX_POINT ( 'NONE', #88 ) ;
#110 = CIRCLE ( 'NONE', #106, 4.000000000000000000 ) ;
#111 = AXIS2_PLACEMENT_3D ( 'NONE', #262, #198, #196 ) ;
#112 = EDGE_CURVE ( 'NONE', #173, #87, #154, .T. ) ;
#113 = ORIENTED_EDGE ( 'NONE', *, *, #240, .F. ) ;
#114 = AXIS2_PLACEMENT_3D ( 'NONE', #259, #191, #285 ) ;
#115 = CC_DESIGN_PERSON_AND_ORGANIZATION_ASSIGNMENT ( #9, #220, ( #271 ) ) ;
#116 = EDGE_LOOP ( 'NONE', ( #137, #121, #59, #113 ) ) ;
#117 = ORIENTED_EDGE ( 'NONE', *, *, #134, .T. ) ;
#118 = PERSON_AND_ORGANIZATION_ROLE ( 'design_owner' ) ;
#119 = CARTESIAN_POINT ( 'NONE',  ( 2.449999999999999734, 0.000000000000000000, 2.999999999999990674 ) ) ;
#120 = PERSON_AND_ORGANIZATION ( #297, #288 ) ;
#121 = ORIENTED_EDGE ( 'NONE', *, *, #289, .T. ) ;
#122 = CARTESIAN_POINT ( 'NONE',  ( 0.000000000000000000, 0.000000000000000000, 318.0000000000000000 ) ) ;
#123 = APPROVAL ( #306, 'NEURÈENÝ' ) ;
#124 = CARTESIAN_POINT ( 'NONE',  ( 2.250000000000000000, 2.755455298081544285E-16, 318.0000000000000000 ) ) ;
#125 = FACE_OUTER_BOUND ( 'NONE', #145, .T. ) ;
#126 = CLOSED_SHELL ( 'NONE', ( #155, #304, #294, #231, #192, #180, #214, #60, #39 ) ) ;
#127 = CARTESIAN_POINT ( 'NONE',  ( 2.250000000000000000, 2.755455298081544285E-16, 318.0000000000000000 ) ) ;
#128 = CARTESIAN_POINT ( 'NONE',  ( 0.000000000000000000, 0.000000000000000000, 3.000000000000000000 ) ) ;
#129 = EDGE_CURVE ( 'NONE', #203, #175, #63, .T. ) ;
#130 = PLANE ( 'NONE',  #269 ) ;
#131 = ORIENTED_EDGE ( 'NONE', *, *, #10, .F. ) ;
#132 = VERTEX_POINT ( 'NONE', #164 ) ;
#133 = EDGE_LOOP ( 'NONE', ( #131, #85 ) ) ;
#134 = EDGE_CURVE ( 'NONE', #35, #132, #236, .T. ) ;
#135 = PRODUCT_DEFINITION_SHAPE ( 'NONE', 'NONE',  #181 ) ;
#136 = CC_DESIGN_PERSON_AND_ORGANIZATION_ASSIGNMENT ( #265, #107, ( #271 ) ) ;
#137 = ORIENTED_EDGE ( 'NONE', *, *, #129, .F. ) ;
#138 = CIRCLE ( 'NONE', #167, 2.250000000000000000 ) ;
#139 = DIRECTION ( 'NONE',  ( 0.000000000000000000, 0.000000000000000000, 1.000000000000000000 ) ) ;
#140 = ORIENTED_EDGE ( 'NONE', *, *, #266, .T. ) ;
#141 = DATE_AND_TIME ( #280, #99 ) ;
#142 = DIRECTION ( 'NONE',  ( 1.000000000000000000, 0.000000000000000000, 0.000000000000000000 ) ) ;
#143 = PERSON_AND_ORGANIZATION_ROLE ( 'creator' ) ;
#144 = EDGE_CURVE ( 'NONE', #267, #182, #148, .T. ) ;
#145 = EDGE_LOOP ( 'NONE', ( #34, #197, #89, #229 ) ) ;
#146 = DIRECTION ( 'NONE',  ( 1.000000000000000000, 0.000000000000000000, 0.000000000000000000 ) ) ;
#147 = CARTESIAN_POINT ( 'NONE',  ( 0.000000000000000000, 0.000000000000000000, 0.000000000000000000 ) ) ;
#148 = CIRCLE ( 'NONE', #190, 4.000000000000000000 ) ;
#149 = PERSON_AND_ORGANIZATION_ROLE ( 'classification_officer' ) ;
#150 = FACE_OUTER_BOUND ( 'NONE', #301, .T. ) ;
#151 = ORIENTED_EDGE ( 'NONE', *, *, #129, .T. ) ;
#152 = APPROVAL_DATE_TIME ( #105, #3 ) ;
#153 = AXIS2_PLACEMENT_3D ( 'NONE', #8, #104, #172 ) ;
#154 = CIRCLE ( 'NONE', #243, 2.250000000000000000 ) ;
#155 = ADVANCED_FACE ( 'NONE', ( #150 ), #13, .F. ) ;
#156 = DIRECTION ( 'NONE',  ( 0.000000000000000000, 0.000000000000000000, 1.000000000000000000 ) ) ;
#157 = CARTESIAN_POINT ( 'NONE',  ( 0.000000000000000000, 0.000000000000000000, 0.000000000000000000 ) ) ;
#158 = CARTESIAN_POINT ( 'NONE',  ( 0.000000000000000000, 0.000000000000000000, 3.000000000000000000 ) ) ;
#159 = VECTOR ( 'NONE', #237, 1000.000000000000000 ) ;
#160 = AXIS2_PLACEMENT_3D ( 'NONE', #158, #227, #277 ) ;
#161 = ORIENTED_EDGE ( 'NONE', *, *, #103, .F. ) ;
#162 = DIRECTION ( 'NONE',  ( -0.000000000000000000, -0.000000000000000000, -1.000000000000000000 ) ) ;
#163 = CC_DESIGN_PERSON_AND_ORGANIZATION_ASSIGNMENT ( #120, #143, ( #181 ) ) ;
#164 = CARTESIAN_POINT ( 'NONE',  ( -2.250000000000000000, 0.000000000000000000, 3.199999999999980638 ) ) ;
#165 = DIRECTION ( 'NONE',  ( 1.000000000000000000, 0.000000000000000000, 0.000000000000000000 ) ) ;
#166 = APPROVAL_STATUS ( 'not_yet_approved' ) ;
#167 = AXIS2_PLACEMENT_3D ( 'NONE', #100, #300, #74 ) ;
#168 = DIRECTION ( 'NONE',  ( -1.000000000000000000, 0.000000000000000000, 0.000000000000000000 ) ) ;
#169 = CYLINDRICAL_SURFACE ( 'NONE', #160, 4.000000000000000000 ) ;
#170 = EDGE_CURVE ( 'NONE', #69, #109, #261, .T. ) ;
#171 = CARTESIAN_POINT ( 'NONE',  ( 0.000000000000000000, 0.000000000000000000, 3.199999999999980638 ) ) ;
#172 = DIRECTION ( 'NONE',  ( 1.000000000000000000, 0.000000000000000000, -0.000000000000000000 ) ) ;
#173 = VERTEX_POINT ( 'NONE', #124 ) ;
#174 = CARTESIAN_POINT ( 'NONE',  ( 4.000000000000000000, 4.898587196589412829E-16, 3.000000000000000000 ) ) ;
#175 = VERTEX_POINT ( 'NONE', #96 ) ;
#176 = EDGE_CURVE ( 'NONE', #35, #69, #33, .T. ) ;
#177 = COORDINATED_UNIVERSAL_TIME_OFFSET ( 1, 0, .AHEAD. ) ;
#178 = ADVANCED_BREP_SHAPE_REPRESENTATION ( '0803', ( #274, #75 ), #194 ) ;
#179 = VECTOR ( 'NONE', #162, 1000.000000000000000 ) ;
#180 = ADVANCED_FACE ( 'NONE', ( #30 ), #130, .F. ) ;
#181 = PRODUCT_DEFINITION ( 'NEZNÁMÝ', '', #271, #246 ) ;
#182 = VERTEX_POINT ( 'NONE', #282 ) ;
#183 = ORIENTED_EDGE ( 'NONE', *, *, #266, .F. ) ;
#184 = CARTESIAN_POINT ( 'NONE',  ( 0.000000000000000000, 0.000000000000000000, 3.199999999999980638 ) ) ;
#185 = CYLINDRICAL_SURFACE ( 'NONE', #6, 2.250000000000000000 ) ;
#186 = EDGE_CURVE ( 'NONE', #132, #109, #72, .T. ) ;
#187 = DIRECTION ( 'NONE',  ( 0.000000000000000000, 0.000000000000000000, 1.000000000000000000 ) ) ;
#188 = ORIENTED_EDGE ( 'NONE', *, *, #176, .F. ) ;
#189 = APPLICATION_PROTOCOL_DEFINITION ( 'international standard', 'config_control_design', 1994, #101 ) ;
#190 = AXIS2_PLACEMENT_3D ( 'NONE', #67, #255, #50 ) ;
#191 = DIRECTION ( 'NONE',  ( 1.224646799147353207E-16, 1.000000000000000000, -0.000000000000000000 ) ) ;
#192 = ADVANCED_FACE ( 'NONE', ( #73, #239 ), #102, .T. ) ;
#193 =( NAMED_UNIT ( * ) SI_UNIT ( $, .STERADIAN. ) SOLID_ANGLE_UNIT ( ) );
#194 =( GEOMETRIC_REPRESENTATION_CONTEXT ( 3 ) GLOBAL_UNCERTAINTY_ASSIGNED_CONTEXT ( ( #86 ) ) GLOBAL_UNIT_ASSIGNED_CONTEXT ( ( #18, #279, #193 ) ) REPRESENTATION_CONTEXT ( 'NONE', 'WORKASPACE' ) );
#195 = DIRECTION ( 'NONE',  ( -1.000000000000000000, 0.000000000000000000, 0.000000000000000000 ) ) ;
#196 = DIRECTION ( 'NONE',  ( 0.000000000000000000, 0.000000000000000000, -1.000000000000000000 ) ) ;
#197 = ORIENTED_EDGE ( 'NONE', *, *, #224, .F. ) ;
#198 = DIRECTION ( 'NONE',  ( 0.000000000000000000, -1.000000000000000000, 0.000000000000000000 ) ) ;
#199 = SECURITY_CLASSIFICATION_LEVEL ( 'unclassified' ) ;
#200 = ORIENTED_EDGE ( 'NONE', *, *, #224, .T. ) ;
#201 = ORIENTED_EDGE ( 'NONE', *, *, #84, .F. ) ;
#202 = VECTOR ( 'NONE', #298, 1000.000000000000000 ) ;
#203 = VERTEX_POINT ( 'NONE', #174 ) ;
#204 = APPROVAL_PERSON_ORGANIZATION ( #286, #3, #11 ) ;
#205 = ORIENTED_EDGE ( 'NONE', *, *, #176, .T. ) ;
#206 = LOCAL_TIME ( 14, 47, 48.00000000000000000, #24 ) ;
#207 = DIRECTION ( 'NONE',  ( 1.000000000000000000, 0.000000000000000000, -0.000000000000000000 ) ) ;
#208 = DIRECTION ( 'NONE',  ( 0.000000000000000000, 0.000000000000000000, 1.000000000000000000 ) ) ;
#209 = DIRECTION ( 'NONE',  ( -0.000000000000000000, -0.000000000000000000, -1.000000000000000000 ) ) ;
#210 = DIRECTION ( 'NONE',  ( 0.000000000000000000, 0.000000000000000000, 1.000000000000000000 ) ) ;
#211 = CALENDAR_DATE ( 2022, 7, 7 ) ;
#212 = ORIENTED_EDGE ( 'NONE', *, *, #134, .F. ) ;
#213 = DIRECTION ( 'NONE',  ( 1.000000000000000000, 0.000000000000000000, 0.000000000000000000 ) ) ;
#214 = ADVANCED_FACE ( 'NONE', ( #125 ), #76, .T. ) ;
#215 = DIRECTION ( 'NONE',  ( 1.000000000000000000, 0.000000000000000000, -0.000000000000000000 ) ) ;
#216 = CARTESIAN_POINT ( 'NONE',  ( 0.000000000000000000, 0.000000000000000000, 318.0000000000000000 ) ) ;
#217 = COORDINATED_UNIVERSAL_TIME_OFFSET ( 1, 0, .AHEAD. ) ;
#218 = DIRECTION ( 'NONE',  ( -0.000000000000000000, -0.000000000000000000, -1.000000000000000000 ) ) ;
#219 = DIRECTION ( 'NONE',  ( 0.000000000000000000, 0.000000000000000000, 1.000000000000000000 ) ) ;
#220 = PERSON_AND_ORGANIZATION_ROLE ( 'design_supplier' ) ;
#221 = CC_DESIGN_PERSON_AND_ORGANIZATION_ASSIGNMENT ( #241, #149, ( #292 ) ) ;
#222 = APPROVAL_DATE_TIME ( #283, #123 ) ;
#223 = ORIENTED_EDGE ( 'NONE', *, *, #270, .T. ) ;
#224 = EDGE_CURVE ( 'NONE', #87, #173, #54, .T. ) ;
#225 = CARTESIAN_POINT ( 'NONE',  ( 0.000000000000000000, 0.000000000000000000, 3.000000000000000000 ) ) ;
#226 = EDGE_LOOP ( 'NONE', ( #200, #242 ) ) ;
#227 = DIRECTION ( 'NONE',  ( -0.000000000000000000, -0.000000000000000000, -1.000000000000000000 ) ) ;
#228 = AXIS2_PLACEMENT_3D ( 'NONE', #62, #210, #248 ) ;
#229 = ORIENTED_EDGE ( 'NONE', *, *, #293, .T. ) ;
#230 = DATE_TIME_ROLE ( 'creation_date' ) ;
#231 = ADVANCED_FACE ( 'NONE', ( #2 ), #98, .T. ) ;
#232 = EDGE_LOOP ( 'NONE', ( #55, #161, #284, #12 ) ) ;
#233 = DIRECTION ( 'NONE',  ( 0.000000000000000000, 0.000000000000000000, 1.000000000000000000 ) ) ;
#234 = DIRECTION ( 'NONE',  ( 0.000000000000000000, 0.000000000000000000, 1.000000000000000000 ) ) ;
#235 = MECHANICAL_CONTEXT ( 'NONE', #101, 'mechanical' ) ;
#236 = CIRCLE ( 'NONE', #15, 2.250000000000000000 ) ;
#237 = DIRECTION ( 'NONE',  ( -0.000000000000000000, -0.000000000000000000, -1.000000000000000000 ) ) ;
#238 = LOCAL_TIME ( 14, 47, 48.00000000000000000, #217 ) ;
#239 = FACE_OUTER_BOUND ( 'NONE', #253, .T. ) ;
#240 = EDGE_CURVE ( 'NONE', #175, #182, #281, .T. ) ;
#241 = PERSON_AND_ORGANIZATION ( #297, #288 ) ;
#242 = ORIENTED_EDGE ( 'NONE', *, *, #112, .T. ) ;
#243 = AXIS2_PLACEMENT_3D ( 'NONE', #21, #37, #165 ) ;
#244 = DATE_TIME_ROLE ( 'classification_date' ) ;
#245 = APPROVAL_PERSON_ORGANIZATION ( #71, #108, #41 ) ;
#246 = DESIGN_CONTEXT ( 'detailed design', #82, 'design' ) ;
#247 = VECTOR ( 'NONE', #209, 1000.000000000000000 ) ;
#248 = DIRECTION ( 'NONE',  ( 1.000000000000000000, 0.000000000000000000, 0.000000000000000000 ) ) ;
#249 = TOROIDAL_SURFACE ( 'NONE', #291, 2.449999999999999734, 0.2000000000000000111 ) ;
#250 = CARTESIAN_POINT ( 'NONE',  ( -2.250000000000000000, 0.000000000000000000, 318.0000000000000000 ) ) ;
#251 = AXIS2_PLACEMENT_3D ( 'NONE', #128, #78, #195 ) ;
#252 = FACE_OUTER_BOUND ( 'NONE', #45, .T. ) ;
#253 = EDGE_LOOP ( 'NONE', ( #268, #151 ) ) ;
#254 = APPLICATION_PROTOCOL_DEFINITION ( 'international standard', 'config_control_design', 1994, #82 ) ;
#255 = DIRECTION ( 'NONE',  ( 0.000000000000000000, 0.000000000000000000, 1.000000000000000000 ) ) ;
#256 = APPROVAL_DATE_TIME ( #141, #108 ) ;
#257 = FACE_OUTER_BOUND ( 'NONE', #226, .T. ) ;
#258 = COORDINATED_UNIVERSAL_TIME_OFFSET ( 1, 0, .AHEAD. ) ;
#259 = CARTESIAN_POINT ( 'NONE',  ( -2.449999999999999734, 3.000384657911015370E-16, 3.199999999999980638 ) ) ;
#260 = CARTESIAN_POINT ( 'NONE',  ( -4.000000000000000000, 0.000000000000000000, 3.000000000000000000 ) ) ;
#261 = CIRCLE ( 'NONE', #263, 2.449999999999999734 ) ;
#262 = CARTESIAN_POINT ( 'NONE',  ( 2.449999999999999734, 0.000000000000000000, 3.199999999999980638 ) ) ;
#263 = AXIS2_PLACEMENT_3D ( 'NONE', #52, #81, #307 ) ;
#264 = DIRECTION ( 'NONE',  ( -0.000000000000000000, -0.000000000000000000, -1.000000000000000000 ) ) ;
#265 = PERSON_AND_ORGANIZATION ( #297, #288 ) ;
#266 = EDGE_CURVE ( 'NONE', #109, #69, #65, .T. ) ;
#267 = VERTEX_POINT ( 'NONE', #44 ) ;
#268 = ORIENTED_EDGE ( 'NONE', *, *, #103, .T. ) ;
#269 = AXIS2_PLACEMENT_3D ( 'NONE', #147, #219, #215 ) ;
#270 = EDGE_CURVE ( 'NONE', #173, #35, #97, .T. ) ;
#271 = PRODUCT_DEFINITION_FORMATION_WITH_SPECIFIED_SOURCE ( 'LIBOVOLNÝ', '', #49, .NOT_KNOWN. ) ;
#272 = DIRECTION ( 'NONE',  ( 1.000000000000000000, 0.000000000000000000, 0.000000000000000000 ) ) ;
#273 = AXIS2_PLACEMENT_3D ( 'NONE', #225, #17, #299 ) ;
#274 = MANIFOLD_SOLID_BREP ( 'Zaoblit1', #126 ) ;
#275 = FACE_OUTER_BOUND ( 'NONE', #40, .T. ) ;
#276 = DIRECTION ( 'NONE',  ( 1.000000000000000000, 0.000000000000000000, 0.000000000000000000 ) ) ;
#277 = DIRECTION ( 'NONE',  ( -1.000000000000000000, 0.000000000000000000, 0.000000000000000000 ) ) ;
#278 = CARTESIAN_POINT ( 'NONE',  ( 2.250000000000000000, 2.755455298081544285E-16, 3.199999999999980638 ) ) ;
#279 =( NAMED_UNIT ( * ) PLANE_ANGLE_UNIT ( ) SI_UNIT ( $, .RADIAN. ) );
#280 = CALENDAR_DATE ( 2022, 7, 7 ) ;
#281 = LINE ( 'NONE', #260, #159 ) ;
#282 = CARTESIAN_POINT ( 'NONE',  ( -4.000000000000000000, 0.000000000000000000, 0.000000000000000000 ) ) ;
#283 = DATE_AND_TIME ( #83, #206 ) ;
#284 = ORIENTED_EDGE ( 'NONE', *, *, #240, .T. ) ;
#285 = DIRECTION ( 'NONE',  ( -1.000000000000000000, 1.224646799147353207E-16, 0.000000000000000000 ) ) ;
#286 = PERSON_AND_ORGANIZATION ( #297, #288 ) ;
#287 = EDGE_LOOP ( 'NONE', ( #31, #140 ) ) ;
#288 = ORGANIZATION ( 'NEURÈENÝ', 'NEURÈENÝ', '' ) ;
#289 = EDGE_CURVE ( 'NONE', #203, #267, #48, .T. ) ;
#290 = APPROVAL_STATUS ( 'not_yet_approved' ) ;
#291 = AXIS2_PLACEMENT_3D ( 'NONE', #64, #156, #142 ) ;
#292 = SECURITY_CLASSIFICATION ( '', '', #199 ) ;
#293 = EDGE_CURVE ( 'NONE', #132, #35, #138, .T. ) ;
#294 = ADVANCED_FACE ( 'NONE', ( #46 ), #169, .T. ) ;
#295 = ORIENTED_EDGE ( 'NONE', *, *, #170, .F. ) ;
#296 = APPROVAL_PERSON_ORGANIZATION ( #22, #123, #94 ) ;
#297 = PERSON ( 'NEURÈENÝ', 'NEURÈENÝ', 'NEURÈENÝ', ('NEURÈENÝ'), ('NEURÈENÝ'), ('NEURÈENÝ') ) ;
#298 = DIRECTION ( 'NONE',  ( -0.000000000000000000, -0.000000000000000000, -1.000000000000000000 ) ) ;
#299 = DIRECTION ( 'NONE',  ( 1.000000000000000000, 0.000000000000000000, 0.000000000000000000 ) ) ;
#300 = DIRECTION ( 'NONE',  ( 0.000000000000000000, 0.000000000000000000, 1.000000000000000000 ) ) ;
#301 = EDGE_LOOP ( 'NONE', ( #19, #93, #295, #188 ) ) ;
#302 = AXIS2_PLACEMENT_3D ( 'NONE', #27, #218, #7 ) ;
#303 = CARTESIAN_POINT ( 'NONE',  ( 0.000000000000000000, 0.000000000000000000, 0.000000000000000000 ) ) ;
#304 = ADVANCED_FACE ( 'NONE', ( #252 ), #185, .T. ) ;
#305 = ORIENTED_EDGE ( 'NONE', *, *, #112, .F. ) ;
#306 = APPROVAL_STATUS ( 'not_yet_approved' ) ;
#307 = DIRECTION ( 'NONE',  ( 1.000000000000000000, 0.000000000000000000, 0.000000000000000000 ) ) ;
ENDSEC;
END-ISO-10303-21;
