ISO-10303-21;
HEADER;
FILE_DESCRIPTION (( 'STEP AP203' ),
    '1' );
FILE_NAME ('434b.STEP',
    '2022-07-07T12:43:36',
    ( '' ),
    ( '' ),
    'SwSTEP 2.0',
    'SolidWorks 2019',
    '' );
FILE_SCHEMA (( 'CONFIG_CONTROL_DESIGN' ));
ENDSEC;

DATA;
#1 = ORIENTED_EDGE ( 'NONE', *, *, #24, .T. ) ;
#2 = DIRECTION ( 'NONE',  ( 1.000000000000000000, 0.000000000000000000, 0.000000000000000000 ) ) ;
#3 = EDGE_LOOP ( 'NONE', ( #232, #238, #9, #112 ) ) ;
#4 = FACE_OUTER_BOUND ( 'NONE', #13, .T. ) ;
#5 = FACE_OUTER_BOUND ( 'NONE', #3, .T. ) ;
#6 = SECURITY_CLASSIFICATION ( '', '', #102 ) ;
#7 = PERSON_AND_ORGANIZATION_ROLE ( 'design_supplier' ) ;
#8 = DIRECTION ( 'NONE',  ( 1.000000000000000000, 0.000000000000000000, 0.000000000000000000 ) ) ;
#9 = ORIENTED_EDGE ( 'NONE', *, *, #256, .T. ) ;
#10 = VECTOR ( 'NONE', #135, 1000.000000000000000 ) ;
#11 = DESIGN_CONTEXT ( 'detailed design', #289, 'design' ) ;
#12 = AXIS2_PLACEMENT_3D ( 'NONE', #284, #67, #278 ) ;
#13 = EDGE_LOOP ( 'NONE', ( #162, #242, #39, #184 ) ) ;
#14 = CYLINDRICAL_SURFACE ( 'NONE', #166, 2.750000000000000000 ) ;
#15 = ORIENTED_EDGE ( 'NONE', *, *, #209, .F. ) ;
#16 =( LENGTH_UNIT ( ) NAMED_UNIT ( * ) SI_UNIT ( .MILLI., .METRE. ) );
#17 = EDGE_LOOP ( 'NONE', ( #301, #227 ) ) ;
#18 = PERSON_AND_ORGANIZATION ( #192, #27 ) ;
#19 = CARTESIAN_POINT ( 'NONE',  ( 0.000000000000000000, 0.000000000000000000, 3.000000000000000000 ) ) ;
#20 = VERTEX_POINT ( 'NONE', #169 ) ;
#21 = FACE_BOUND ( 'NONE', #140, .T. ) ;
#22 = DIRECTION ( 'NONE',  ( 0.000000000000000000, 0.000000000000000000, 1.000000000000000000 ) ) ;
#23 = ORIENTED_EDGE ( 'NONE', *, *, #202, .T. ) ;
#24 = EDGE_CURVE ( 'NONE', #20, #134, #196, .T. ) ;
#25 = FACE_OUTER_BOUND ( 'NONE', #264, .T. ) ;
#26 = CARTESIAN_POINT ( 'NONE',  ( 2.949999999999999734, 0.000000000000000000, 3.000000000000004441 ) ) ;
#27 = ORGANIZATION ( 'NEURÈENÝ', 'NEURÈENÝ', '' ) ;
#28 = DIRECTION ( 'NONE',  ( -0.000000000000000000, -0.000000000000000000, -1.000000000000000000 ) ) ;
#29 = CALENDAR_DATE ( 2022, 7, 7 ) ;
#30 = CC_DESIGN_DATE_AND_TIME_ASSIGNMENT ( #297, #137, ( #6 ) ) ;
#31 = PERSON_AND_ORGANIZATION ( #192, #27 ) ;
#32 = MANIFOLD_SOLID_BREP ( 'Zaoblit1', #160 ) ;
#33 = PRODUCT_DEFINITION ( 'NEZNÁMÝ', '', #52, #11 ) ;
#34 = DATE_AND_TIME ( #29, #279 ) ;
#35 = ORIENTED_EDGE ( 'NONE', *, *, #129, .T. ) ;
#36 = LOCAL_TIME ( 14, 43, 36.00000000000000000, #40 ) ;
#37 = EDGE_LOOP ( 'NONE', ( #108, #60, #190, #136 ) ) ;
#38 = CARTESIAN_POINT ( 'NONE',  ( 0.000000000000000000, 0.000000000000000000, 0.000000000000000000 ) ) ;
#39 = ORIENTED_EDGE ( 'NONE', *, *, #75, .T. ) ;
#40 = COORDINATED_UNIVERSAL_TIME_OFFSET ( 1, 0, .AHEAD. ) ;
#41 = CARTESIAN_POINT ( 'NONE',  ( 0.000000000000000000, 0.000000000000000000, 3.200000000000008171 ) ) ;
#42 = CARTESIAN_POINT ( 'NONE',  ( 5.000000000000000000, 6.123233995736766282E-16, 3.000000000000000000 ) ) ;
#43 = LINE ( 'NONE', #93, #10 ) ;
#44 = EDGE_CURVE ( 'NONE', #46, #119, #90, .T. ) ;
#45 = CARTESIAN_POINT ( 'NONE',  ( 0.000000000000000000, 0.000000000000000000, 3.200000000000008171 ) ) ;
#46 = VERTEX_POINT ( 'NONE', #197 ) ;
#47 = EDGE_CURVE ( 'NONE', #46, #143, #69, .T. ) ;
#48 = CARTESIAN_POINT ( 'NONE',  ( 2.750000000000000000, 3.367778697655221012E-16, 3.200000000000008171 ) ) ;
#49 = DIRECTION ( 'NONE',  ( -0.000000000000000000, -0.000000000000000000, -1.000000000000000000 ) ) ;
#50 = CARTESIAN_POINT ( 'NONE',  ( -2.949999999999999734, 3.612708057484692097E-16, 3.200000000000008171 ) ) ;
#51 = DIRECTION ( 'NONE',  ( 1.000000000000000000, 0.000000000000000000, 0.000000000000000000 ) ) ;
#52 = PRODUCT_DEFINITION_FORMATION_WITH_SPECIFIED_SOURCE ( 'LIBOVOLNÝ', '', #269, .NOT_KNOWN. ) ;
#53 = DATE_TIME_ROLE ( 'creation_date' ) ;
#54 = DATE_AND_TIME ( #158, #178 ) ;
#55 = APPLICATION_PROTOCOL_DEFINITION ( 'international standard', 'config_control_design', 1994, #245 ) ;
#56 = MECHANICAL_CONTEXT ( 'NONE', #245, 'mechanical' ) ;
#57 = VECTOR ( 'NONE', #116, 1000.000000000000000 ) ;
#58 = ADVANCED_FACE ( 'NONE', ( #167 ), #258, .T. ) ;
#59 = VERTEX_POINT ( 'NONE', #42 ) ;
#60 = ORIENTED_EDGE ( 'NONE', *, *, #103, .F. ) ;
#61 = APPROVAL_ROLE ( '' ) ;
#62 = CARTESIAN_POINT ( 'NONE',  ( 0.000000000000000000, 0.000000000000000000, 203.0000000000000000 ) ) ;
#63 = APPROVAL_PERSON_ORGANIZATION ( #31, #288, #294 ) ;
#64 = CARTESIAN_POINT ( 'NONE',  ( 0.000000000000000000, 0.000000000000000000, 203.0000000000000000 ) ) ;
#65 = CC_DESIGN_PERSON_AND_ORGANIZATION_ASSIGNMENT ( #249, #7, ( #52 ) ) ;
#66 = VERTEX_POINT ( 'NONE', #212 ) ;
#67 = DIRECTION ( 'NONE',  ( 0.000000000000000000, 0.000000000000000000, 1.000000000000000000 ) ) ;
#68 = CARTESIAN_POINT ( 'NONE',  ( 5.000000000000000000, 6.123233995736766282E-16, 0.000000000000000000 ) ) ;
#69 = CIRCLE ( 'NONE', #12, 2.750000000000000000 ) ;
#70 = AXIS2_PLACEMENT_3D ( 'NONE', #174, #257, #233 ) ;
#71 = PLANE ( 'NONE',  #99 ) ;
#72 = CARTESIAN_POINT ( 'NONE',  ( 2.949999999999999734, 0.000000000000000000, 3.200000000000008171 ) ) ;
#73 = CARTESIAN_POINT ( 'NONE',  ( -2.750000000000000000, 0.000000000000000000, 3.200000000000008171 ) ) ;
#74 = LINE ( 'NONE', #176, #82 ) ;
#75 = EDGE_CURVE ( 'NONE', #119, #105, #239, .T. ) ;
#76 = PRODUCT_DEFINITION_SHAPE ( 'NONE', 'NONE',  #33 ) ;
#77 = DIRECTION ( 'NONE',  ( 0.000000000000000000, 0.000000000000000000, 1.000000000000000000 ) ) ;
#78 = ADVANCED_FACE ( 'NONE', ( #21, #194 ), #144, .T. ) ;
#79 = CC_DESIGN_APPROVAL ( #222, ( #6 ) ) ;
#80 = PERSON_AND_ORGANIZATION_ROLE ( 'design_owner' ) ;
#81 = COORDINATED_UNIVERSAL_TIME_OFFSET ( 1, 0, .AHEAD. ) ;
#82 = VECTOR ( 'NONE', #285, 1000.000000000000000 ) ;
#83 = CALENDAR_DATE ( 2022, 7, 7 ) ;
#84 = APPROVAL_STATUS ( 'not_yet_approved' ) ;
#85 = AXIS2_PLACEMENT_3D ( 'NONE', #237, #22, #109 ) ;
#86 = DIRECTION ( 'NONE',  ( 1.000000000000000000, 0.000000000000000000, 0.000000000000000000 ) ) ;
#87 = VERTEX_POINT ( 'NONE', #68 ) ;
#88 = DIRECTION ( 'NONE',  ( -1.000000000000000000, 1.224646799147353207E-16, 0.000000000000000000 ) ) ;
#89 = ORIENTED_EDGE ( 'NONE', *, *, #168, .F. ) ;
#90 = LINE ( 'NONE', #200, #57 ) ;
#91 = DIRECTION ( 'NONE',  ( 0.000000000000000000, 0.000000000000000000, 1.000000000000000000 ) ) ;
#92 = DIRECTION ( 'NONE',  ( 1.000000000000000000, 0.000000000000000000, 0.000000000000000000 ) ) ;
#93 = CARTESIAN_POINT ( 'NONE',  ( -5.000000000000000000, 0.000000000000000000, 3.000000000000000000 ) ) ;
#94 = AXIS2_PLACEMENT_3D ( 'NONE', #139, #267, #51 ) ;
#95 = ORIENTED_EDGE ( 'NONE', *, *, #225, .F. ) ;
#96 = DIRECTION ( 'NONE',  ( -0.000000000000000000, -0.000000000000000000, -1.000000000000000000 ) ) ;
#97 = DIRECTION ( 'NONE',  ( -0.000000000000000000, -0.000000000000000000, -1.000000000000000000 ) ) ;
#98 = CC_DESIGN_PERSON_AND_ORGANIZATION_ASSIGNMENT ( #104, #80, ( #269 ) ) ;
#99 = AXIS2_PLACEMENT_3D ( 'NONE', #117, #215, #173 ) ;
#100 =( NAMED_UNIT ( * ) SI_UNIT ( $, .STERADIAN. ) SOLID_ANGLE_UNIT ( ) );
#101 = CIRCLE ( 'NONE', #295, 5.000000000000000000 ) ;
#102 = SECURITY_CLASSIFICATION_LEVEL ( 'unclassified' ) ;
#103 = EDGE_CURVE ( 'NONE', #143, #46, #120, .T. ) ;
#104 = PERSON_AND_ORGANIZATION ( #192, #27 ) ;
#105 = VERTEX_POINT ( 'NONE', #73 ) ;
#106 = PRODUCT_RELATED_PRODUCT_CATEGORY ( 'detail', '', ( #269 ) ) ;
#107 = COORDINATED_UNIVERSAL_TIME_OFFSET ( 1, 0, .AHEAD. ) ;
#108 = ORIENTED_EDGE ( 'NONE', *, *, #44, .F. ) ;
#109 = DIRECTION ( 'NONE',  ( 1.000000000000000000, 0.000000000000000000, 0.000000000000000000 ) ) ;
#110 = ORIENTED_EDGE ( 'NONE', *, *, #145, .T. ) ;
#111 = CALENDAR_DATE ( 2022, 7, 7 ) ;
#112 = ORIENTED_EDGE ( 'NONE', *, *, #24, .F. ) ;
#113 = DIRECTION ( 'NONE',  ( -0.000000000000000000, -0.000000000000000000, -1.000000000000000000 ) ) ;
#114 = CC_DESIGN_APPROVAL ( #288, ( #33 ) ) ;
#115 = ADVANCED_FACE ( 'NONE', ( #147 ), #71, .F. ) ;
#116 = DIRECTION ( 'NONE',  ( -0.000000000000000000, -0.000000000000000000, -1.000000000000000000 ) ) ;
#117 = CARTESIAN_POINT ( 'NONE',  ( 0.000000000000000000, 0.000000000000000000, 0.000000000000000000 ) ) ;
#118 = FACE_OUTER_BOUND ( 'NONE', #37, .T. ) ;
#119 = VERTEX_POINT ( 'NONE', #48 ) ;
#120 = CIRCLE ( 'NONE', #254, 2.750000000000000000 ) ;
#121 = DIRECTION ( 'NONE',  ( 0.000000000000000000, 0.000000000000000000, -1.000000000000000000 ) ) ;
#122 =( GEOMETRIC_REPRESENTATION_CONTEXT ( 3 ) GLOBAL_UNCERTAINTY_ASSIGNED_CONTEXT ( ( #133 ) ) GLOBAL_UNIT_ASSIGNED_CONTEXT ( ( #16, #272, #100 ) ) REPRESENTATION_CONTEXT ( 'NONE', 'WORKASPACE' ) );
#123 = CARTESIAN_POINT ( 'NONE',  ( -2.750000000000000000, 0.000000000000000000, 203.0000000000000000 ) ) ;
#124 = CC_DESIGN_DATE_AND_TIME_ASSIGNMENT ( #182, #53, ( #33 ) ) ;
#125 = DIRECTION ( 'NONE',  ( -1.000000000000000000, 0.000000000000000000, 0.000000000000000000 ) ) ;
#126 = CIRCLE ( 'NONE', #298, 0.2000000000000000944 ) ;
#127 = AXIS2_PLACEMENT_3D ( 'NONE', #41, #216, #287 ) ;
#128 = PERSON_AND_ORGANIZATION ( #192, #27 ) ;
#129 = EDGE_CURVE ( 'NONE', #134, #20, #183, .T. ) ;
#130 = PERSON_AND_ORGANIZATION ( #192, #27 ) ;
#131 = TOROIDAL_SURFACE ( 'NONE', #127, 2.949999999999999734, 0.2000000000000000111 ) ;
#132 = APPROVAL ( #270, 'NEURÈENÝ' ) ;
#133 = UNCERTAINTY_MEASURE_WITH_UNIT (LENGTH_MEASURE( 1.000000000000000082E-05 ), #16, 'distance_accuracy_value', 'NONE');
#134 = VERTEX_POINT ( 'NONE', #26 ) ;
#135 = DIRECTION ( 'NONE',  ( -0.000000000000000000, -0.000000000000000000, -1.000000000000000000 ) ) ;
#136 = ORIENTED_EDGE ( 'NONE', *, *, #221, .T. ) ;
#137 = DATE_TIME_ROLE ( 'classification_date' ) ;
#138 = AXIS2_PLACEMENT_3D ( 'NONE', #151, #28, #125 ) ;
#139 = CARTESIAN_POINT ( 'NONE',  ( 0.000000000000000000, 0.000000000000000000, 3.000000000000000000 ) ) ;
#140 = EDGE_LOOP ( 'NONE', ( #35, #1 ) ) ;
#141 = CC_DESIGN_PERSON_AND_ORGANIZATION_ASSIGNMENT ( #130, #228, ( #52 ) ) ;
#142 = CARTESIAN_POINT ( 'NONE',  ( 0.000000000000000000, 0.000000000000000000, 3.200000000000008171 ) ) ;
#143 = VERTEX_POINT ( 'NONE', #123 ) ;
#144 = PLANE ( 'NONE',  #180 ) ;
#145 = EDGE_CURVE ( 'NONE', #105, #20, #126, .T. ) ;
#146 = CC_DESIGN_APPROVAL ( #132, ( #52 ) ) ;
#147 = FACE_OUTER_BOUND ( 'NONE', #299, .T. ) ;
#148 = ORIENTED_EDGE ( 'NONE', *, *, #202, .F. ) ;
#149 = DIRECTION ( 'NONE',  ( 0.000000000000000000, 0.000000000000000000, 1.000000000000000000 ) ) ;
#150 = DIRECTION ( 'NONE',  ( -0.000000000000000000, -0.000000000000000000, -1.000000000000000000 ) ) ;
#151 = CARTESIAN_POINT ( 'NONE',  ( 0.000000000000000000, 0.000000000000000000, 3.000000000000000000 ) ) ;
#152 = AXIS2_PLACEMENT_3D ( 'NONE', #72, #198, #121 ) ;
#153 = APPROVAL_DATE_TIME ( #54, #132 ) ;
#154 = ADVANCED_FACE ( 'NONE', ( #265 ), #210, .T. ) ;
#155 = APPLICATION_PROTOCOL_DEFINITION ( 'international standard', 'config_control_design', 1994, #289 ) ;
#156 = TOROIDAL_SURFACE ( 'NONE', #70, 2.949999999999999734, 0.2000000000000000111 ) ;
#157 = DIRECTION ( 'NONE',  ( 0.000000000000000000, 0.000000000000000000, 1.000000000000000000 ) ) ;
#158 = CALENDAR_DATE ( 2022, 7, 7 ) ;
#159 = ORIENTED_EDGE ( 'NONE', *, *, #256, .F. ) ;
#160 = CLOSED_SHELL ( 'NONE', ( #251, #189, #281, #58, #78, #115, #247, #154, #165 ) ) ;
#161 = CC_DESIGN_SECURITY_CLASSIFICATION ( #6, ( #52 ) ) ;
#162 = ORIENTED_EDGE ( 'NONE', *, *, #47, .F. ) ;
#163 = ORIENTED_EDGE ( 'NONE', *, *, #129, .F. ) ;
#164 = DATE_AND_TIME ( #111, #213 ) ;
#165 = ADVANCED_FACE ( 'NONE', ( #5 ), #156, .F. ) ;
#166 = AXIS2_PLACEMENT_3D ( 'NONE', #300, #49, #253 ) ;
#167 = FACE_OUTER_BOUND ( 'NONE', #296, .T. ) ;
#168 = EDGE_CURVE ( 'NONE', #66, #87, #101, .T. ) ;
#169 = CARTESIAN_POINT ( 'NONE',  ( -2.949999999999999734, 3.612708057484692097E-16, 3.000000000000004441 ) ) ;
#170 = AXIS2_PLACEMENT_3D ( 'NONE', #64, #77, #211 ) ;
#171 = VERTEX_POINT ( 'NONE', #303 ) ;
#172 = CIRCLE ( 'NONE', #273, 5.000000000000000000 ) ;
#173 = DIRECTION ( 'NONE',  ( 1.000000000000000000, 0.000000000000000000, -0.000000000000000000 ) ) ;
#174 = CARTESIAN_POINT ( 'NONE',  ( 0.000000000000000000, 0.000000000000000000, 3.200000000000008171 ) ) ;
#175 = ORIENTED_EDGE ( 'NONE', *, *, #47, .T. ) ;
#176 = CARTESIAN_POINT ( 'NONE',  ( -2.750000000000000000, 0.000000000000000000, 203.0000000000000000 ) ) ;
#177 = COORDINATED_UNIVERSAL_TIME_OFFSET ( 1, 0, .AHEAD. ) ;
#178 = LOCAL_TIME ( 14, 43, 36.00000000000000000, #224 ) ;
#179 = APPROVAL_STATUS ( 'not_yet_approved' ) ;
#180 = AXIS2_PLACEMENT_3D ( 'NONE', #214, #241, #280 ) ;
#181 = CIRCLE ( 'NONE', #94, 5.000000000000000000 ) ;
#182 = DATE_AND_TIME ( #83, #191 ) ;
#183 = CIRCLE ( 'NONE', #261, 2.949999999999999734 ) ;
#184 = ORIENTED_EDGE ( 'NONE', *, *, #260, .F. ) ;
#185 = APPROVAL_DATE_TIME ( #164, #222 ) ;
#186 = DIRECTION ( 'NONE',  ( 0.000000000000000000, 0.000000000000000000, 1.000000000000000000 ) ) ;
#187 = EDGE_LOOP ( 'NONE', ( #95, #208, #234, #148 ) ) ;
#188 = CARTESIAN_POINT ( 'NONE',  ( 5.000000000000000000, 6.123233995736766282E-16, 3.000000000000000000 ) ) ;
#189 = ADVANCED_FACE ( 'NONE', ( #4 ), #14, .T. ) ;
#190 = ORIENTED_EDGE ( 'NONE', *, *, #260, .T. ) ;
#191 = LOCAL_TIME ( 14, 43, 36.00000000000000000, #81 ) ;
#192 = PERSON ( 'NEURÈENÝ', 'NEURÈENÝ', 'NEURÈENÝ', ('NEURÈENÝ'), ('NEURÈENÝ'), ('NEURÈENÝ') ) ;
#193 = CC_DESIGN_PERSON_AND_ORGANIZATION_ASSIGNMENT ( #205, #292, ( #6 ) ) ;
#194 = FACE_OUTER_BOUND ( 'NONE', #17, .T. ) ;
#195 = DIRECTION ( 'NONE',  ( 1.000000000000000000, 0.000000000000000000, 0.000000000000000000 ) ) ;
#196 = CIRCLE ( 'NONE', #204, 2.949999999999999734 ) ;
#197 = CARTESIAN_POINT ( 'NONE',  ( 2.750000000000000000, 3.367778697655221012E-16, 203.0000000000000000 ) ) ;
#198 = DIRECTION ( 'NONE',  ( 0.000000000000000000, -1.000000000000000000, 0.000000000000000000 ) ) ;
#199 = VECTOR ( 'NONE', #96, 1000.000000000000000 ) ;
#200 = CARTESIAN_POINT ( 'NONE',  ( 2.750000000000000000, 3.367778697655221012E-16, 203.0000000000000000 ) ) ;
#201 = DIRECTION ( 'NONE',  ( -1.000000000000000000, 0.000000000000000000, 0.000000000000000000 ) ) ;
#202 = EDGE_CURVE ( 'NONE', #171, #66, #43, .T. ) ;
#203 = DIRECTION ( 'NONE',  ( 1.000000000000000000, 0.000000000000000000, 0.000000000000000000 ) ) ;
#204 = AXIS2_PLACEMENT_3D ( 'NONE', #283, #217, #92 ) ;
#205 = PERSON_AND_ORGANIZATION ( #192, #27 ) ;
#206 = APPROVAL_DATE_TIME ( #34, #288 ) ;
#207 = SHAPE_DEFINITION_REPRESENTATION ( #76, #282 ) ;
#208 = ORIENTED_EDGE ( 'NONE', *, *, #209, .T. ) ;
#209 = EDGE_CURVE ( 'NONE', #59, #87, #218, .T. ) ;
#210 = PLANE ( 'NONE',  #170 ) ;
#211 = DIRECTION ( 'NONE',  ( 1.000000000000000000, 0.000000000000000000, -0.000000000000000000 ) ) ;
#212 = CARTESIAN_POINT ( 'NONE',  ( -5.000000000000000000, 0.000000000000000000, 0.000000000000000000 ) ) ;
#213 = LOCAL_TIME ( 14, 43, 36.00000000000000000, #107 ) ;
#214 = CARTESIAN_POINT ( 'NONE',  ( 0.000000000000000000, 0.000000000000000000, 3.000000000000000000 ) ) ;
#215 = DIRECTION ( 'NONE',  ( 0.000000000000000000, 0.000000000000000000, 1.000000000000000000 ) ) ;
#216 = DIRECTION ( 'NONE',  ( 0.000000000000000000, 0.000000000000000000, 1.000000000000000000 ) ) ;
#217 = DIRECTION ( 'NONE',  ( -0.000000000000000000, -0.000000000000000000, -1.000000000000000000 ) ) ;
#218 = LINE ( 'NONE', #188, #199 ) ;
#219 = CIRCLE ( 'NONE', #223, 2.750000000000000000 ) ;
#220 = FACE_OUTER_BOUND ( 'NONE', #187, .T. ) ;
#221 = EDGE_CURVE ( 'NONE', #105, #119, #219, .T. ) ;
#222 = APPROVAL ( #84, 'NEURÈENÝ' ) ;
#223 = AXIS2_PLACEMENT_3D ( 'NONE', #142, #149, #86 ) ;
#224 = COORDINATED_UNIVERSAL_TIME_OFFSET ( 1, 0, .AHEAD. ) ;
#225 = EDGE_CURVE ( 'NONE', #59, #171, #250, .T. ) ;
#226 = CARTESIAN_POINT ( 'NONE',  ( 0.000000000000000000, 0.000000000000000000, 0.000000000000000000 ) ) ;
#227 = ORIENTED_EDGE ( 'NONE', *, *, #225, .T. ) ;
#228 = PERSON_AND_ORGANIZATION_ROLE ( 'creator' ) ;
#229 = AXIS2_PLACEMENT_3D ( 'NONE', #226, #157, #8 ) ;
#230 = EDGE_LOOP ( 'NONE', ( #304, #175 ) ) ;
#231 = EDGE_CURVE ( 'NONE', #87, #66, #172, .T. ) ;
#232 = ORIENTED_EDGE ( 'NONE', *, *, #145, .F. ) ;
#233 = DIRECTION ( 'NONE',  ( 1.000000000000000000, 0.000000000000000000, 0.000000000000000000 ) ) ;
#234 = ORIENTED_EDGE ( 'NONE', *, *, #231, .T. ) ;
#235 = CIRCLE ( 'NONE', #152, 0.2000000000000000944 ) ;
#236 = ORIENTED_EDGE ( 'NONE', *, *, #221, .F. ) ;
#237 = CARTESIAN_POINT ( 'NONE',  ( 0.000000000000000000, 0.000000000000000000, 3.000000000000000000 ) ) ;
#238 = ORIENTED_EDGE ( 'NONE', *, *, #75, .F. ) ;
#239 = CIRCLE ( 'NONE', #275, 2.750000000000000000 ) ;
#240 = ORIENTED_EDGE ( 'NONE', *, *, #168, .T. ) ;
#241 = DIRECTION ( 'NONE',  ( 0.000000000000000000, 0.000000000000000000, 1.000000000000000000 ) ) ;
#242 = ORIENTED_EDGE ( 'NONE', *, *, #44, .T. ) ;
#243 = DIRECTION ( 'NONE',  ( 0.000000000000000000, 0.000000000000000000, 1.000000000000000000 ) ) ;
#244 = DIRECTION ( 'NONE',  ( 1.000000000000000000, 0.000000000000000000, 0.000000000000000000 ) ) ;
#245 = APPLICATION_CONTEXT ( 'configuration controlled 3d designs of mechanical parts and assemblies' ) ;
#246 = CYLINDRICAL_SURFACE ( 'NONE', #138, 5.000000000000000000 ) ;
#247 = ADVANCED_FACE ( 'NONE', ( #118 ), #276, .T. ) ;
#248 = APPROVAL_ROLE ( '' ) ;
#249 = PERSON_AND_ORGANIZATION ( #192, #27 ) ;
#250 = CIRCLE ( 'NONE', #85, 5.000000000000000000 ) ;
#251 = ADVANCED_FACE ( 'NONE', ( #25 ), #131, .F. ) ;
#252 = ORIENTED_EDGE ( 'NONE', *, *, #274, .F. ) ;
#253 = DIRECTION ( 'NONE',  ( -1.000000000000000000, 0.000000000000000000, 0.000000000000000000 ) ) ;
#254 = AXIS2_PLACEMENT_3D ( 'NONE', #307, #91, #195 ) ;
#255 = DIRECTION ( 'NONE',  ( 1.224646799147353207E-16, 1.000000000000000000, -0.000000000000000000 ) ) ;
#256 = EDGE_CURVE ( 'NONE', #119, #134, #235, .T. ) ;
#257 = DIRECTION ( 'NONE',  ( 0.000000000000000000, 0.000000000000000000, 1.000000000000000000 ) ) ;
#258 = CYLINDRICAL_SURFACE ( 'NONE', #293, 5.000000000000000000 ) ;
#259 = DIRECTION ( 'NONE',  ( -1.000000000000000000, 0.000000000000000000, 0.000000000000000000 ) ) ;
#260 = EDGE_CURVE ( 'NONE', #143, #105, #74, .T. ) ;
#261 = AXIS2_PLACEMENT_3D ( 'NONE', #266, #150, #244 ) ;
#262 = ORIENTED_EDGE ( 'NONE', *, *, #231, .F. ) ;
#263 = AXIS2_PLACEMENT_3D ( 'NONE', #62, #97, #201 ) ;
#264 = EDGE_LOOP ( 'NONE', ( #236, #110, #163, #159 ) ) ;
#265 = FACE_OUTER_BOUND ( 'NONE', #230, .T. ) ;
#266 = CARTESIAN_POINT ( 'NONE',  ( 0.000000000000000000, 0.000000000000000000, 3.000000000000000000 ) ) ;
#267 = DIRECTION ( 'NONE',  ( 0.000000000000000000, 0.000000000000000000, 1.000000000000000000 ) ) ;
#268 = CC_DESIGN_PERSON_AND_ORGANIZATION_ASSIGNMENT ( #291, #271, ( #33 ) ) ;
#269 = PRODUCT ( '434b', '434b', '', ( #56 ) ) ;
#270 = APPROVAL_STATUS ( 'not_yet_approved' ) ;
#271 = PERSON_AND_ORGANIZATION_ROLE ( 'creator' ) ;
#272 =( NAMED_UNIT ( * ) PLANE_ANGLE_UNIT ( ) SI_UNIT ( $, .RADIAN. ) );
#273 = AXIS2_PLACEMENT_3D ( 'NONE', #277, #186, #203 ) ;
#274 = EDGE_CURVE ( 'NONE', #171, #59, #181, .T. ) ;
#275 = AXIS2_PLACEMENT_3D ( 'NONE', #45, #286, #305 ) ;
#276 = CYLINDRICAL_SURFACE ( 'NONE', #263, 2.750000000000000000 ) ;
#277 = CARTESIAN_POINT ( 'NONE',  ( 0.000000000000000000, 0.000000000000000000, 0.000000000000000000 ) ) ;
#278 = DIRECTION ( 'NONE',  ( 1.000000000000000000, 0.000000000000000000, 0.000000000000000000 ) ) ;
#279 = LOCAL_TIME ( 14, 43, 36.00000000000000000, #177 ) ;
#280 = DIRECTION ( 'NONE',  ( 1.000000000000000000, 0.000000000000000000, -0.000000000000000000 ) ) ;
#281 = ADVANCED_FACE ( 'NONE', ( #220 ), #246, .T. ) ;
#282 = ADVANCED_BREP_SHAPE_REPRESENTATION ( '434b', ( #32, #229 ), #122 ) ;
#283 = CARTESIAN_POINT ( 'NONE',  ( 0.000000000000000000, 0.000000000000000000, 3.000000000000000000 ) ) ;
#284 = CARTESIAN_POINT ( 'NONE',  ( 0.000000000000000000, 0.000000000000000000, 203.0000000000000000 ) ) ;
#285 = DIRECTION ( 'NONE',  ( -0.000000000000000000, -0.000000000000000000, -1.000000000000000000 ) ) ;
#286 = DIRECTION ( 'NONE',  ( 0.000000000000000000, 0.000000000000000000, 1.000000000000000000 ) ) ;
#287 = DIRECTION ( 'NONE',  ( 1.000000000000000000, 0.000000000000000000, 0.000000000000000000 ) ) ;
#288 = APPROVAL ( #179, 'NEURÈENÝ' ) ;
#289 = APPLICATION_CONTEXT ( 'configuration controlled 3d designs of mechanical parts and assemblies' ) ;
#290 = APPROVAL_PERSON_ORGANIZATION ( #18, #222, #61 ) ;
#291 = PERSON_AND_ORGANIZATION ( #192, #27 ) ;
#292 = PERSON_AND_ORGANIZATION_ROLE ( 'classification_officer' ) ;
#293 = AXIS2_PLACEMENT_3D ( 'NONE', #19, #113, #259 ) ;
#294 = APPROVAL_ROLE ( '' ) ;
#295 = AXIS2_PLACEMENT_3D ( 'NONE', #38, #243, #2 ) ;
#296 = EDGE_LOOP ( 'NONE', ( #15, #252, #23, #240 ) ) ;
#297 = DATE_AND_TIME ( #302, #36 ) ;
#298 = AXIS2_PLACEMENT_3D ( 'NONE', #50, #255, #88 ) ;
#299 = EDGE_LOOP ( 'NONE', ( #89, #262 ) ) ;
#300 = CARTESIAN_POINT ( 'NONE',  ( 0.000000000000000000, 0.000000000000000000, 203.0000000000000000 ) ) ;
#301 = ORIENTED_EDGE ( 'NONE', *, *, #274, .T. ) ;
#302 = CALENDAR_DATE ( 2022, 7, 7 ) ;
#303 = CARTESIAN_POINT ( 'NONE',  ( -5.000000000000000000, 0.000000000000000000, 3.000000000000000000 ) ) ;
#304 = ORIENTED_EDGE ( 'NONE', *, *, #103, .T. ) ;
#305 = DIRECTION ( 'NONE',  ( 1.000000000000000000, 0.000000000000000000, 0.000000000000000000 ) ) ;
#306 = APPROVAL_PERSON_ORGANIZATION ( #128, #132, #248 ) ;
#307 = CARTESIAN_POINT ( 'NONE',  ( 0.000000000000000000, 0.000000000000000000, 203.0000000000000000 ) ) ;
ENDSEC;
END-ISO-10303-21;
