ISO-10303-21;
HEADER;
FILE_DESCRIPTION (( 'STEP AP203' ),
    '1' );
FILE_NAME ('d63d.STEP',
    '2023-02-12T11:41:14',
    ( '' ),
    ( '' ),
    'SwSTEP 2.0',
    'SolidWorks 2019',
    '' );
FILE_SCHEMA (( 'CONFIG_CONTROL_DESIGN' ));
ENDSEC;

DATA;
#1 = EDGE_CURVE ( 'NONE', #253, #54, #38, .T. ) ;
#2 = DIRECTION ( 'NONE',  ( 0.000000000000000000, 0.000000000000000000, 1.000000000000000000 ) ) ;
#3 = DATE_TIME_ROLE ( 'creation_date' ) ;
#4 = CC_DESIGN_APPROVAL ( #20, ( #115 ) ) ;
#5 = PERSON_AND_ORGANIZATION_ROLE ( 'classification_officer' ) ;
#6 = AXIS2_PLACEMENT_3D ( 'NONE', #66, #29, #193 ) ;
#7 = EDGE_CURVE ( 'NONE', #165, #54, #110, .T. ) ;
#8 = CC_DESIGN_APPROVAL ( #34, ( #9 ) ) ;
#9 = PRODUCT_DEFINITION ( 'NEZNÁMÝ', '', #56, #248 ) ;
#10 = SHAPE_DEFINITION_REPRESENTATION ( #150, #102 ) ;
#11 = FACE_OUTER_BOUND ( 'NONE', #40, .T. ) ;
#12 = AXIS2_PLACEMENT_3D ( 'NONE', #60, #2, #26 ) ;
#13 = ORIENTED_EDGE ( 'NONE', *, *, #136, .F. ) ;
#14 = DIRECTION ( 'NONE',  ( -0.000000000000000000, -0.000000000000000000, -1.000000000000000000 ) ) ;
#15 = DIRECTION ( 'NONE',  ( 0.000000000000000000, 0.000000000000000000, 1.000000000000000000 ) ) ;
#16 = APPLICATION_CONTEXT ( 'configuration controlled 3d designs of mechanical parts and assemblies' ) ;
#17 = EDGE_LOOP ( 'NONE', ( #142, #122 ) ) ;
#18 = ADVANCED_FACE ( 'NONE', ( #179 ), #235, .F. ) ;
#19 = CARTESIAN_POINT ( 'NONE',  ( 0.000000000000000000, 0.000000000000000000, 0.000000000000000000 ) ) ;
#20 = APPROVAL ( #195, 'NEURÈENÝ' ) ;
#21 = CARTESIAN_POINT ( 'NONE',  ( 0.000000000000000000, 0.000000000000000000, 0.000000000000000000 ) ) ;
#22 = PERSON_AND_ORGANIZATION_ROLE ( 'design_supplier' ) ;
#23 = ORIENTED_EDGE ( 'NONE', *, *, #221, .T. ) ;
#24 = CYLINDRICAL_SURFACE ( 'NONE', #107, 5.000000000000000000 ) ;
#25 = APPROVAL_DATE_TIME ( #174, #34 ) ;
#26 = DIRECTION ( 'NONE',  ( 1.000000000000000000, 0.000000000000000000, 0.000000000000000000 ) ) ;
#27 = ORIENTED_EDGE ( 'NONE', *, *, #136, .T. ) ;
#28 = DIRECTION ( 'NONE',  ( 1.000000000000000000, 0.000000000000000000, 0.000000000000000000 ) ) ;
#29 = DIRECTION ( 'NONE',  ( 0.000000000000000000, 0.000000000000000000, 1.000000000000000000 ) ) ;
#30 = EDGE_CURVE ( 'NONE', #69, #139, #178, .T. ) ;
#31 = CALENDAR_DATE ( 2023, 12, 2 ) ;
#32 = CIRCLE ( 'NONE', #89, 5.000000000000000000 ) ;
#33 = CARTESIAN_POINT ( 'NONE',  ( 0.000000000000000000, 0.000000000000000000, 500.0000000000000000 ) ) ;
#34 = APPROVAL ( #90, 'NEURÈENÝ' ) ;
#35 = COORDINATED_UNIVERSAL_TIME_OFFSET ( 1, 0, .AHEAD. ) ;
#36 = LOCAL_TIME ( 12, 41, 14.00000000000000000, #135 ) ;
#37 = APPLICATION_PROTOCOL_DEFINITION ( 'international standard', 'config_control_design', 1994, #184 ) ;
#38 = LINE ( 'NONE', #77, #83 ) ;
#39 = VECTOR ( 'NONE', #121, 1000.000000000000000 ) ;
#40 = EDGE_LOOP ( 'NONE', ( #198, #255, #127, #27 ) ) ;
#41 = COORDINATED_UNIVERSAL_TIME_OFFSET ( 1, 0, .AHEAD. ) ;
#42 = EDGE_CURVE ( 'NONE', #69, #116, #213, .T. ) ;
#43 = EDGE_LOOP ( 'NONE', ( #47, #106, #187, #211 ) ) ;
#44 = ORIENTED_EDGE ( 'NONE', *, *, #134, .T. ) ;
#45 =( LENGTH_UNIT ( ) NAMED_UNIT ( * ) SI_UNIT ( .MILLI., .METRE. ) );
#46 = VECTOR ( 'NONE', #14, 1000.000000000000000 ) ;
#47 = ORIENTED_EDGE ( 'NONE', *, *, #189, .F. ) ;
#48 = DIRECTION ( 'NONE',  ( -1.000000000000000000, 0.000000000000000000, 0.000000000000000000 ) ) ;
#49 = DATE_AND_TIME ( #219, #183 ) ;
#50 = PRODUCT ( 'd63d', 'd63d', '', ( #231 ) ) ;
#51 = ORIENTED_EDGE ( 'NONE', *, *, #30, .F. ) ;
#52 = APPROVAL_ROLE ( '' ) ;
#53 = DIRECTION ( 'NONE',  ( -0.000000000000000000, -0.000000000000000000, -1.000000000000000000 ) ) ;
#54 = VERTEX_POINT ( 'NONE', #202 ) ;
#55 = COORDINATED_UNIVERSAL_TIME_OFFSET ( 1, 0, .AHEAD. ) ;
#56 = PRODUCT_DEFINITION_FORMATION_WITH_SPECIFIED_SOURCE ( 'LIBOVOLNÝ', '', #50, .NOT_KNOWN. ) ;
#57 = CC_DESIGN_PERSON_AND_ORGANIZATION_ASSIGNMENT ( #236, #239, ( #9 ) ) ;
#58 = PERSON_AND_ORGANIZATION ( #201, #105 ) ;
#59 = DIRECTION ( 'NONE',  ( 0.000000000000000000, 0.000000000000000000, 1.000000000000000000 ) ) ;
#60 = CARTESIAN_POINT ( 'NONE',  ( 0.000000000000000000, 0.000000000000000000, 3.000000000000000000 ) ) ;
#61 = DIRECTION ( 'NONE',  ( 1.000000000000000000, 0.000000000000000000, -0.000000000000000000 ) ) ;
#62 = CC_DESIGN_PERSON_AND_ORGANIZATION_ASSIGNMENT ( #120, #200, ( #56 ) ) ;
#63 = CARTESIAN_POINT ( 'NONE',  ( 2.750000000000000000, 3.367778697655220519E-16, 500.0000000000000000 ) ) ;
#64 = CC_DESIGN_PERSON_AND_ORGANIZATION_ASSIGNMENT ( #74, #22, ( #56 ) ) ;
#65 = ADVANCED_FACE ( 'NONE', ( #94 ), #24, .T. ) ;
#66 = CARTESIAN_POINT ( 'NONE',  ( 0.000000000000000000, 0.000000000000000000, 3.000000000000000000 ) ) ;
#67 = CARTESIAN_POINT ( 'NONE',  ( 0.000000000000000000, 0.000000000000000000, 3.000000000000000000 ) ) ;
#68 = UNCERTAINTY_MEASURE_WITH_UNIT (LENGTH_MEASURE( 1.000000000000000082E-05 ), #45, 'distance_accuracy_value', 'NONE');
#69 = VERTEX_POINT ( 'NONE', #180 ) ;
#70 = DATE_AND_TIME ( #31, #133 ) ;
#71 = ORIENTED_EDGE ( 'NONE', *, *, #42, .T. ) ;
#72 = ORIENTED_EDGE ( 'NONE', *, *, #134, .F. ) ;
#73 = AXIS2_PLACEMENT_3D ( 'NONE', #124, #185, #28 ) ;
#74 = PERSON_AND_ORGANIZATION ( #201, #105 ) ;
#75 = FACE_OUTER_BOUND ( 'NONE', #80, .T. ) ;
#76 = AXIS2_PLACEMENT_3D ( 'NONE', #206, #59, #61 ) ;
#77 = CARTESIAN_POINT ( 'NONE',  ( -5.000000000000000000, 0.000000000000000000, 3.000000000000000000 ) ) ;
#78 = DIRECTION ( 'NONE',  ( 1.000000000000000000, 0.000000000000000000, 0.000000000000000000 ) ) ;
#79 = CC_DESIGN_PERSON_AND_ORGANIZATION_ASSIGNMENT ( #117, #197, ( #50 ) ) ;
#80 = EDGE_LOOP ( 'NONE', ( #71, #44 ) ) ;
#81 = EDGE_CURVE ( 'NONE', #129, #139, #123, .T. ) ;
#82 = COORDINATED_UNIVERSAL_TIME_OFFSET ( 1, 0, .AHEAD. ) ;
#83 = VECTOR ( 'NONE', #118, 1000.000000000000000 ) ;
#84 = CARTESIAN_POINT ( 'NONE',  ( 2.750000000000000000, 3.367778697655220519E-16, 3.000000000000000000 ) ) ;
#85 = DIRECTION ( 'NONE',  ( -0.000000000000000000, -0.000000000000000000, -1.000000000000000000 ) ) ;
#86 = VERTEX_POINT ( 'NONE', #103 ) ;
#87 = ADVANCED_FACE ( 'NONE', ( #182 ), #210, .T. ) ;
#88 = CC_DESIGN_DATE_AND_TIME_ASSIGNMENT ( #49, #132, ( #115 ) ) ;
#89 = AXIS2_PLACEMENT_3D ( 'NONE', #113, #15, #78 ) ;
#90 = APPROVAL_STATUS ( 'not_yet_approved' ) ;
#91 = ORIENTED_EDGE ( 'NONE', *, *, #175, .F. ) ;
#92 = DIRECTION ( 'NONE',  ( 0.000000000000000000, 0.000000000000000000, 1.000000000000000000 ) ) ;
#93 = ADVANCED_FACE ( 'NONE', ( #170, #109 ), #207, .T. ) ;
#94 = FACE_OUTER_BOUND ( 'NONE', #181, .T. ) ;
#95 = CALENDAR_DATE ( 2023, 12, 2 ) ;
#96 = CIRCLE ( 'NONE', #247, 2.750000000000000000 ) ;
#97 = PERSON_AND_ORGANIZATION ( #201, #105 ) ;
#98 = CARTESIAN_POINT ( 'NONE',  ( 0.000000000000000000, 0.000000000000000000, 500.0000000000000000 ) ) ;
#99 = DIRECTION ( 'NONE',  ( 0.000000000000000000, 0.000000000000000000, 1.000000000000000000 ) ) ;
#100 = DIRECTION ( 'NONE',  ( 1.000000000000000000, 0.000000000000000000, 0.000000000000000000 ) ) ;
#101 = DIRECTION ( 'NONE',  ( -1.000000000000000000, 0.000000000000000000, 0.000000000000000000 ) ) ;
#102 = ADVANCED_BREP_SHAPE_REPRESENTATION ( 'd63d', ( #251, #205 ), #217 ) ;
#103 = CARTESIAN_POINT ( 'NONE',  ( 5.000000000000000000, 6.123233995736766282E-16, 3.000000000000000000 ) ) ;
#104 = SECURITY_CLASSIFICATION_LEVEL ( 'unclassified' ) ;
#105 = ORGANIZATION ( 'NEURÈENÝ', 'NEURÈENÝ', '' ) ;
#106 = ORIENTED_EDGE ( 'NONE', *, *, #168, .T. ) ;
#107 = AXIS2_PLACEMENT_3D ( 'NONE', #156, #232, #101 ) ;
#108 = ORIENTED_EDGE ( 'NONE', *, *, #7, .F. ) ;
#109 = FACE_OUTER_BOUND ( 'NONE', #17, .T. ) ;
#110 = CIRCLE ( 'NONE', #114, 5.000000000000000000 ) ;
#111 = CARTESIAN_POINT ( 'NONE',  ( 0.000000000000000000, 0.000000000000000000, 500.0000000000000000 ) ) ;
#112 = AXIS2_PLACEMENT_3D ( 'NONE', #246, #53, #225 ) ;
#113 = CARTESIAN_POINT ( 'NONE',  ( 0.000000000000000000, 0.000000000000000000, 0.000000000000000000 ) ) ;
#114 = AXIS2_PLACEMENT_3D ( 'NONE', #21, #99, #100 ) ;
#115 = SECURITY_CLASSIFICATION ( '', '', #104 ) ;
#116 = VERTEX_POINT ( 'NONE', #63 ) ;
#117 = PERSON_AND_ORGANIZATION ( #201, #105 ) ;
#118 = DIRECTION ( 'NONE',  ( -0.000000000000000000, -0.000000000000000000, -1.000000000000000000 ) ) ;
#119 = CIRCLE ( 'NONE', #6, 2.750000000000000000 ) ;
#120 = PERSON_AND_ORGANIZATION ( #201, #105 ) ;
#121 = DIRECTION ( 'NONE',  ( -0.000000000000000000, -0.000000000000000000, -1.000000000000000000 ) ) ;
#122 = ORIENTED_EDGE ( 'NONE', *, *, #189, .T. ) ;
#123 = CIRCLE ( 'NONE', #12, 2.750000000000000000 ) ;
#124 = CARTESIAN_POINT ( 'NONE',  ( 0.000000000000000000, 0.000000000000000000, 3.000000000000000000 ) ) ;
#125 = DIRECTION ( 'NONE',  ( 1.000000000000000000, 0.000000000000000000, 0.000000000000000000 ) ) ;
#126 = DIRECTION ( 'NONE',  ( -0.000000000000000000, -0.000000000000000000, -1.000000000000000000 ) ) ;
#127 = ORIENTED_EDGE ( 'NONE', *, *, #30, .T. ) ;
#128 = VECTOR ( 'NONE', #190, 1000.000000000000000 ) ;
#129 = VERTEX_POINT ( 'NONE', #84 ) ;
#130 = PERSON_AND_ORGANIZATION ( #201, #105 ) ;
#131 = CARTESIAN_POINT ( 'NONE',  ( 5.000000000000000000, 6.123233995736766282E-16, 3.000000000000000000 ) ) ;
#132 = DATE_TIME_ROLE ( 'classification_date' ) ;
#133 = LOCAL_TIME ( 12, 41, 14.00000000000000000, #41 ) ;
#134 = EDGE_CURVE ( 'NONE', #116, #69, #96, .T. ) ;
#135 = COORDINATED_UNIVERSAL_TIME_OFFSET ( 1, 0, .AHEAD. ) ;
#136 = EDGE_CURVE ( 'NONE', #139, #129, #119, .T. ) ;
#137 = DIRECTION ( 'NONE',  ( 0.000000000000000000, 0.000000000000000000, 1.000000000000000000 ) ) ;
#138 = AXIS2_PLACEMENT_3D ( 'NONE', #98, #242, #176 ) ;
#139 = VERTEX_POINT ( 'NONE', #167 ) ;
#140 = CARTESIAN_POINT ( 'NONE',  ( 0.000000000000000000, 0.000000000000000000, 0.000000000000000000 ) ) ;
#141 = APPROVAL_PERSON_ORGANIZATION ( #130, #20, #52 ) ;
#142 = ORIENTED_EDGE ( 'NONE', *, *, #157, .T. ) ;
#143 = DATE_AND_TIME ( #152, #36 ) ;
#144 = DIRECTION ( 'NONE',  ( -1.000000000000000000, 0.000000000000000000, 0.000000000000000000 ) ) ;
#145 = CARTESIAN_POINT ( 'NONE',  ( 0.000000000000000000, 0.000000000000000000, 3.000000000000000000 ) ) ;
#146 = CC_DESIGN_SECURITY_CLASSIFICATION ( #115, ( #56 ) ) ;
#147 = ORIENTED_EDGE ( 'NONE', *, *, #168, .F. ) ;
#148 = CYLINDRICAL_SURFACE ( 'NONE', #250, 5.000000000000000000 ) ;
#149 = LOCAL_TIME ( 12, 41, 14.00000000000000000, #35 ) ;
#150 = PRODUCT_DEFINITION_SHAPE ( 'NONE', 'NONE',  #9 ) ;
#151 = ADVANCED_FACE ( 'NONE', ( #191 ), #148, .T. ) ;
#152 = CALENDAR_DATE ( 2023, 12, 2 ) ;
#153 = DIRECTION ( 'NONE',  ( 1.000000000000000000, 0.000000000000000000, 0.000000000000000000 ) ) ;
#154 = EDGE_LOOP ( 'NONE', ( #91, #108 ) ) ;
#155 = CALENDAR_DATE ( 2023, 12, 2 ) ;
#156 = CARTESIAN_POINT ( 'NONE',  ( 0.000000000000000000, 0.000000000000000000, 3.000000000000000000 ) ) ;
#157 = EDGE_CURVE ( 'NONE', #253, #86, #208, .T. ) ;
#158 = APPROVAL_STATUS ( 'not_yet_approved' ) ;
#159 = LINE ( 'NONE', #233, #128 ) ;
#160 = CC_DESIGN_APPROVAL ( #222, ( #56 ) ) ;
#161 = DIRECTION ( 'NONE',  ( 1.000000000000000000, 0.000000000000000000, -0.000000000000000000 ) ) ;
#162 = DIRECTION ( 'NONE',  ( 1.000000000000000000, 0.000000000000000000, 0.000000000000000000 ) ) ;
#163 =( NAMED_UNIT ( * ) PLANE_ANGLE_UNIT ( ) SI_UNIT ( $, .RADIAN. ) );
#164 = DIRECTION ( 'NONE',  ( 1.000000000000000000, 0.000000000000000000, -0.000000000000000000 ) ) ;
#165 = VERTEX_POINT ( 'NONE', #243 ) ;
#166 = DIRECTION ( 'NONE',  ( 0.000000000000000000, 0.000000000000000000, 1.000000000000000000 ) ) ;
#167 = CARTESIAN_POINT ( 'NONE',  ( -2.750000000000000000, 0.000000000000000000, 3.000000000000000000 ) ) ;
#168 = EDGE_CURVE ( 'NONE', #86, #165, #171, .T. ) ;
#169 = CYLINDRICAL_SURFACE ( 'NONE', #112, 2.750000000000000000 ) ;
#170 = FACE_BOUND ( 'NONE', #220, .T. ) ;
#171 = LINE ( 'NONE', #131, #46 ) ;
#172 = ORIENTED_EDGE ( 'NONE', *, *, #1, .T. ) ;
#173 = APPROVAL_ROLE ( '' ) ;
#174 = DATE_AND_TIME ( #95, #203 ) ;
#175 = EDGE_CURVE ( 'NONE', #54, #165, #32, .T. ) ;
#176 = DIRECTION ( 'NONE',  ( 1.000000000000000000, 0.000000000000000000, 0.000000000000000000 ) ) ;
#177 = APPROVAL_PERSON_ORGANIZATION ( #97, #34, #173 ) ;
#178 = LINE ( 'NONE', #199, #39 ) ;
#179 = FACE_OUTER_BOUND ( 'NONE', #154, .T. ) ;
#180 = CARTESIAN_POINT ( 'NONE',  ( -2.750000000000000000, 0.000000000000000000, 500.0000000000000000 ) ) ;
#181 = EDGE_LOOP ( 'NONE', ( #147, #212, #172, #227 ) ) ;
#182 = FACE_OUTER_BOUND ( 'NONE', #194, .T. ) ;
#183 = LOCAL_TIME ( 12, 41, 14.00000000000000000, #82 ) ;
#184 = APPLICATION_CONTEXT ( 'configuration controlled 3d designs of mechanical parts and assemblies' ) ;
#185 = DIRECTION ( 'NONE',  ( 0.000000000000000000, 0.000000000000000000, 1.000000000000000000 ) ) ;
#186 = PERSON_AND_ORGANIZATION ( #201, #105 ) ;
#187 = ORIENTED_EDGE ( 'NONE', *, *, #7, .T. ) ;
#188 = AXIS2_PLACEMENT_3D ( 'NONE', #145, #218, #164 ) ;
#189 = EDGE_CURVE ( 'NONE', #86, #253, #241, .T. ) ;
#190 = DIRECTION ( 'NONE',  ( -0.000000000000000000, -0.000000000000000000, -1.000000000000000000 ) ) ;
#191 = FACE_OUTER_BOUND ( 'NONE', #43, .T. ) ;
#192 = AXIS2_PLACEMENT_3D ( 'NONE', #140, #137, #161 ) ;
#193 = DIRECTION ( 'NONE',  ( 1.000000000000000000, 0.000000000000000000, 0.000000000000000000 ) ) ;
#194 = EDGE_LOOP ( 'NONE', ( #72, #23, #230, #51 ) ) ;
#195 = APPROVAL_STATUS ( 'not_yet_approved' ) ;
#196 = AXIS2_PLACEMENT_3D ( 'NONE', #67, #224, #162 ) ;
#197 = PERSON_AND_ORGANIZATION_ROLE ( 'design_owner' ) ;
#198 = ORIENTED_EDGE ( 'NONE', *, *, #221, .F. ) ;
#199 = CARTESIAN_POINT ( 'NONE',  ( -2.750000000000000000, 0.000000000000000000, 500.0000000000000000 ) ) ;
#200 = PERSON_AND_ORGANIZATION_ROLE ( 'creator' ) ;
#201 = PERSON ( 'NEURÈENÝ', 'NEURÈENÝ', 'NEURÈENÝ', ('NEURÈENÝ'), ('NEURÈENÝ'), ('NEURÈENÝ') ) ;
#202 = CARTESIAN_POINT ( 'NONE',  ( -5.000000000000000000, 0.000000000000000000, 0.000000000000000000 ) ) ;
#203 = LOCAL_TIME ( 12, 41, 14.00000000000000000, #55 ) ;
#204 = ORIENTED_EDGE ( 'NONE', *, *, #81, .F. ) ;
#205 = AXIS2_PLACEMENT_3D ( 'NONE', #19, #92, #153 ) ;
#206 = CARTESIAN_POINT ( 'NONE',  ( 0.000000000000000000, 0.000000000000000000, 500.0000000000000000 ) ) ;
#207 = PLANE ( 'NONE',  #188 ) ;
#208 = CIRCLE ( 'NONE', #196, 5.000000000000000000 ) ;
#209 = APPROVAL_DATE_TIME ( #143, #20 ) ;
#210 = CYLINDRICAL_SURFACE ( 'NONE', #240, 2.750000000000000000 ) ;
#211 = ORIENTED_EDGE ( 'NONE', *, *, #1, .F. ) ;
#212 = ORIENTED_EDGE ( 'NONE', *, *, #157, .F. ) ;
#213 = CIRCLE ( 'NONE', #138, 2.750000000000000000 ) ;
#214 = APPROVAL_PERSON_ORGANIZATION ( #58, #222, #237 ) ;
#215 = ADVANCED_FACE ( 'NONE', ( #75 ), #238, .T. ) ;
#216 = APPROVAL_DATE_TIME ( #234, #222 ) ;
#217 =( GEOMETRIC_REPRESENTATION_CONTEXT ( 3 ) GLOBAL_UNCERTAINTY_ASSIGNED_CONTEXT ( ( #68 ) ) GLOBAL_UNIT_ASSIGNED_CONTEXT ( ( #45, #163, #252 ) ) REPRESENTATION_CONTEXT ( 'NONE', 'WORKASPACE' ) );
#218 = DIRECTION ( 'NONE',  ( 0.000000000000000000, 0.000000000000000000, 1.000000000000000000 ) ) ;
#219 = CALENDAR_DATE ( 2023, 12, 2 ) ;
#220 = EDGE_LOOP ( 'NONE', ( #13, #204 ) ) ;
#221 = EDGE_CURVE ( 'NONE', #116, #129, #159, .T. ) ;
#222 = APPROVAL ( #158, 'NEURÈENÝ' ) ;
#223 = CARTESIAN_POINT ( 'NONE',  ( 0.000000000000000000, 0.000000000000000000, 3.000000000000000000 ) ) ;
#224 = DIRECTION ( 'NONE',  ( 0.000000000000000000, 0.000000000000000000, 1.000000000000000000 ) ) ;
#225 = DIRECTION ( 'NONE',  ( -1.000000000000000000, 0.000000000000000000, 0.000000000000000000 ) ) ;
#226 = CC_DESIGN_PERSON_AND_ORGANIZATION_ASSIGNMENT ( #186, #5, ( #115 ) ) ;
#227 = ORIENTED_EDGE ( 'NONE', *, *, #175, .T. ) ;
#228 = APPLICATION_PROTOCOL_DEFINITION ( 'international standard', 'config_control_design', 1994, #16 ) ;
#229 = CLOSED_SHELL ( 'NONE', ( #87, #151, #65, #93, #18, #245, #215 ) ) ;
#230 = ORIENTED_EDGE ( 'NONE', *, *, #81, .T. ) ;
#231 = MECHANICAL_CONTEXT ( 'NONE', #16, 'mechanical' ) ;
#232 = DIRECTION ( 'NONE',  ( -0.000000000000000000, -0.000000000000000000, -1.000000000000000000 ) ) ;
#233 = CARTESIAN_POINT ( 'NONE',  ( 2.750000000000000000, 3.367778697655220519E-16, 500.0000000000000000 ) ) ;
#234 = DATE_AND_TIME ( #155, #149 ) ;
#235 = PLANE ( 'NONE',  #192 ) ;
#236 = PERSON_AND_ORGANIZATION ( #201, #105 ) ;
#237 = APPROVAL_ROLE ( '' ) ;
#238 = PLANE ( 'NONE',  #76 ) ;
#239 = PERSON_AND_ORGANIZATION_ROLE ( 'creator' ) ;
#240 = AXIS2_PLACEMENT_3D ( 'NONE', #111, #85, #144 ) ;
#241 = CIRCLE ( 'NONE', #73, 5.000000000000000000 ) ;
#242 = DIRECTION ( 'NONE',  ( 0.000000000000000000, 0.000000000000000000, 1.000000000000000000 ) ) ;
#243 = CARTESIAN_POINT ( 'NONE',  ( 5.000000000000000000, 6.123233995736766282E-16, 0.000000000000000000 ) ) ;
#244 = CARTESIAN_POINT ( 'NONE',  ( -5.000000000000000000, 0.000000000000000000, 3.000000000000000000 ) ) ;
#245 = ADVANCED_FACE ( 'NONE', ( #11 ), #169, .T. ) ;
#246 = CARTESIAN_POINT ( 'NONE',  ( 0.000000000000000000, 0.000000000000000000, 500.0000000000000000 ) ) ;
#247 = AXIS2_PLACEMENT_3D ( 'NONE', #33, #166, #125 ) ;
#248 = DESIGN_CONTEXT ( 'detailed design', #184, 'design' ) ;
#249 = CC_DESIGN_DATE_AND_TIME_ASSIGNMENT ( #70, #3, ( #9 ) ) ;
#250 = AXIS2_PLACEMENT_3D ( 'NONE', #223, #126, #48 ) ;
#251 = MANIFOLD_SOLID_BREP ( 'Pøidat vysunutím3', #229 ) ;
#252 =( NAMED_UNIT ( * ) SI_UNIT ( $, .STERADIAN. ) SOLID_ANGLE_UNIT ( ) );
#253 = VERTEX_POINT ( 'NONE', #244 ) ;
#254 = PRODUCT_RELATED_PRODUCT_CATEGORY ( 'detail', '', ( #50 ) ) ;
#255 = ORIENTED_EDGE ( 'NONE', *, *, #42, .F. ) ;
ENDSEC;
END-ISO-10303-21;
