ISO-10303-21;
HEADER;
FILE_DESCRIPTION (( 'STEP AP203' ),
    '1' );
FILE_NAME ('0bc2.STEP',
    '2022-07-07T12:51:01',
    ( '' ),
    ( '' ),
    'SwSTEP 2.0',
    'SolidWorks 2019',
    '' );
FILE_SCHEMA (( 'CONFIG_CONTROL_DESIGN' ));
ENDSEC;

DATA;
#1 = VERTEX_POINT ( 'NONE', #31 ) ;
#2 = AXIS2_PLACEMENT_3D ( 'NONE', #48, #280, #69 ) ;
#3 = AXIS2_PLACEMENT_3D ( 'NONE', #174, #260, #124 ) ;
#4 = LOCAL_TIME ( 14, 51, 1.000000000000000000, #109 ) ;
#5 = ADVANCED_FACE ( 'NONE', ( #90 ), #49, .F. ) ;
#6 = ORIENTED_EDGE ( 'NONE', *, *, #59, .F. ) ;
#7 = FACE_OUTER_BOUND ( 'NONE', #218, .T. ) ;
#8 = EDGE_LOOP ( 'NONE', ( #136, #132 ) ) ;
#9 = DIRECTION ( 'NONE',  ( 0.000000000000000000, 0.000000000000000000, 1.000000000000000000 ) ) ;
#10 = SECURITY_CLASSIFICATION ( '', '', #272 ) ;
#11 = EDGE_CURVE ( 'NONE', #13, #26, #180, .T. ) ;
#12 = APPROVAL_ROLE ( '' ) ;
#13 = VERTEX_POINT ( 'NONE', #53 ) ;
#14 = CC_DESIGN_PERSON_AND_ORGANIZATION_ASSIGNMENT ( #19, #159, ( #146 ) ) ;
#15 = PERSON_AND_ORGANIZATION ( #24, #28 ) ;
#16 = EDGE_CURVE ( 'NONE', #241, #150, #289, .T. ) ;
#17 = CARTESIAN_POINT ( 'NONE',  ( 0.000000000000000000, 0.000000000000000000, 253.0000000000000000 ) ) ;
#18 = AXIS2_PLACEMENT_3D ( 'NONE', #94, #219, #193 ) ;
#19 = PERSON_AND_ORGANIZATION ( #24, #28 ) ;
#20 = CC_DESIGN_APPROVAL ( #118, ( #146 ) ) ;
#21 = DIRECTION ( 'NONE',  ( -0.000000000000000000, -0.000000000000000000, -1.000000000000000000 ) ) ;
#22 = DIRECTION ( 'NONE',  ( 0.000000000000000000, 0.000000000000000000, 1.000000000000000000 ) ) ;
#23 = DIRECTION ( 'NONE',  ( 1.000000000000000000, 0.000000000000000000, 0.000000000000000000 ) ) ;
#24 = PERSON ( 'NEURÈENÝ', 'NEURÈENÝ', 'NEURÈENÝ', ('NEURÈENÝ'), ('NEURÈENÝ'), ('NEURÈENÝ') ) ;
#25 = CARTESIAN_POINT ( 'NONE',  ( 2.000000000000000000, 2.449293598294706414E-16, 253.0000000000000000 ) ) ;
#26 = VERTEX_POINT ( 'NONE', #147 ) ;
#27 = ORIENTED_EDGE ( 'NONE', *, *, #16, .F. ) ;
#28 = ORGANIZATION ( 'NEURÈENÝ', 'NEURÈENÝ', '' ) ;
#29 = DIRECTION ( 'NONE',  ( -1.000000000000000000, 1.224646799147353207E-16, 0.000000000000000000 ) ) ;
#30 = COORDINATED_UNIVERSAL_TIME_OFFSET ( 1, 0, .AHEAD. ) ;
#31 = CARTESIAN_POINT ( 'NONE',  ( -4.000000000000000000, 0.000000000000000000, 3.000000000000000000 ) ) ;
#32 = CARTESIAN_POINT ( 'NONE',  ( 4.000000000000000000, 4.898587196589412829E-16, 0.000000000000000000 ) ) ;
#33 = ADVANCED_FACE ( 'NONE', ( #7 ), #119, .F. ) ;
#34 = PLANE ( 'NONE',  #172 ) ;
#35 = ORIENTED_EDGE ( 'NONE', *, *, #11, .F. ) ;
#36 = PERSON_AND_ORGANIZATION_ROLE ( 'creator' ) ;
#37 = DATE_TIME_ROLE ( 'creation_date' ) ;
#38 = ADVANCED_FACE ( 'NONE', ( #116, #287 ), #51, .T. ) ;
#39 = CC_DESIGN_APPROVAL ( #181, ( #80 ) ) ;
#40 = ORIENTED_EDGE ( 'NONE', *, *, #254, .T. ) ;
#41 = APPROVAL_DATE_TIME ( #212, #133 ) ;
#42 = CALENDAR_DATE ( 2022, 7, 7 ) ;
#43 = DIRECTION ( 'NONE',  ( 0.000000000000000000, -1.000000000000000000, 0.000000000000000000 ) ) ;
#44 = VECTOR ( 'NONE', #187, 1000.000000000000000 ) ;
#45 = AXIS2_PLACEMENT_3D ( 'NONE', #221, #75, #29 ) ;
#46 = FACE_OUTER_BOUND ( 'NONE', #58, .T. ) ;
#47 = DIRECTION ( 'NONE',  ( 0.000000000000000000, 0.000000000000000000, 1.000000000000000000 ) ) ;
#48 = CARTESIAN_POINT ( 'NONE',  ( 0.000000000000000000, 0.000000000000000000, 3.000000000000000000 ) ) ;
#49 = TOROIDAL_SURFACE ( 'NONE', #3, 2.200000000000000178, 0.2000000000000000111 ) ;
#50 = AXIS2_PLACEMENT_3D ( 'NONE', #142, #215, #67 ) ;
#51 = PLANE ( 'NONE',  #166 ) ;
#52 = ORIENTED_EDGE ( 'NONE', *, *, #71, .F. ) ;
#53 = CARTESIAN_POINT ( 'NONE',  ( -2.000000000000000000, 0.000000000000000000, 3.200000000000008171 ) ) ;
#54 = ORIENTED_EDGE ( 'NONE', *, *, #145, .F. ) ;
#55 = CC_DESIGN_PERSON_AND_ORGANIZATION_ASSIGNMENT ( #64, #183, ( #146 ) ) ;
#56 = DIRECTION ( 'NONE',  ( 0.000000000000000000, 0.000000000000000000, 1.000000000000000000 ) ) ;
#57 = EDGE_CURVE ( 'NONE', #117, #13, #282, .T. ) ;
#58 = EDGE_LOOP ( 'NONE', ( #122, #54, #292, #294 ) ) ;
#59 = EDGE_CURVE ( 'NONE', #205, #202, #186, .T. ) ;
#60 = LOCAL_TIME ( 14, 51, 1.000000000000000000, #228 ) ;
#61 = ADVANCED_FACE ( 'NONE', ( #70 ), #111, .T. ) ;
#62 = EDGE_CURVE ( 'NONE', #26, #244, #102, .T. ) ;
#63 = DATE_TIME_ROLE ( 'classification_date' ) ;
#64 = PERSON_AND_ORGANIZATION ( #24, #28 ) ;
#65 = EDGE_CURVE ( 'NONE', #205, #117, #279, .T. ) ;
#66 = CYLINDRICAL_SURFACE ( 'NONE', #2, 4.000000000000000000 ) ;
#67 = DIRECTION ( 'NONE',  ( -1.000000000000000000, 0.000000000000000000, 0.000000000000000000 ) ) ;
#68 = APPROVAL_PERSON_ORGANIZATION ( #161, #133, #134 ) ;
#69 = DIRECTION ( 'NONE',  ( -1.000000000000000000, 0.000000000000000000, 0.000000000000000000 ) ) ;
#70 = FACE_OUTER_BOUND ( 'NONE', #285, .T. ) ;
#71 = EDGE_CURVE ( 'NONE', #202, #244, #170, .T. ) ;
#72 = CARTESIAN_POINT ( 'NONE',  ( -2.000000000000000000, 0.000000000000000000, 253.0000000000000000 ) ) ;
#73 = CIRCLE ( 'NONE', #179, 2.000000000000000000 ) ;
#74 = EDGE_LOOP ( 'NONE', ( #99, #236 ) ) ;
#75 = DIRECTION ( 'NONE',  ( 1.224646799147353207E-16, 1.000000000000000000, -0.000000000000000000 ) ) ;
#76 = PRODUCT_RELATED_PRODUCT_CATEGORY ( 'detail', '', ( #105 ) ) ;
#77 = CARTESIAN_POINT ( 'NONE',  ( 0.000000000000000000, 0.000000000000000000, 3.200000000000008171 ) ) ;
#78 = CARTESIAN_POINT ( 'NONE',  ( 4.000000000000000000, 4.898587196589412829E-16, 3.000000000000000000 ) ) ;
#79 = ORIENTED_EDGE ( 'NONE', *, *, #203, .F. ) ;
#80 = PRODUCT_DEFINITION ( 'NEZNÁMÝ', '', #146, #293 ) ;
#81 = LOCAL_TIME ( 14, 51, 1.000000000000000000, #222 ) ;
#82 = APPROVAL_DATE_TIME ( #238, #181 ) ;
#83 = EDGE_CURVE ( 'NONE', #117, #205, #95, .T. ) ;
#84 = DATE_AND_TIME ( #151, #120 ) ;
#85 = CYLINDRICAL_SURFACE ( 'NONE', #50, 4.000000000000000000 ) ;
#86 = DIRECTION ( 'NONE',  ( -0.000000000000000000, -0.000000000000000000, -1.000000000000000000 ) ) ;
#87 = CARTESIAN_POINT ( 'NONE',  ( 0.000000000000000000, 0.000000000000000000, 3.000000000000000000 ) ) ;
#88 = DIRECTION ( 'NONE',  ( 1.000000000000000000, 0.000000000000000000, 0.000000000000000000 ) ) ;
#89 = DIRECTION ( 'NONE',  ( 0.000000000000000000, 0.000000000000000000, 1.000000000000000000 ) ) ;
#90 = FACE_OUTER_BOUND ( 'NONE', #103, .T. ) ;
#91 = ORIENTED_EDGE ( 'NONE', *, *, #71, .T. ) ;
#92 = ORIENTED_EDGE ( 'NONE', *, *, #192, .F. ) ;
#93 =( NAMED_UNIT ( * ) PLANE_ANGLE_UNIT ( ) SI_UNIT ( $, .RADIAN. ) );
#94 = CARTESIAN_POINT ( 'NONE',  ( 0.000000000000000000, 0.000000000000000000, 0.000000000000000000 ) ) ;
#95 = CIRCLE ( 'NONE', #165, 2.000000000000000000 ) ;
#96 = APPLICATION_CONTEXT ( 'configuration controlled 3d designs of mechanical parts and assemblies' ) ;
#97 = ORIENTED_EDGE ( 'NONE', *, *, #65, .F. ) ;
#98 = DATE_AND_TIME ( #226, #251 ) ;
#99 = ORIENTED_EDGE ( 'NONE', *, *, #145, .T. ) ;
#100 = UNCERTAINTY_MEASURE_WITH_UNIT (LENGTH_MEASURE( 1.000000000000000082E-05 ), #265, 'distance_accuracy_value', 'NONE');
#101 = CARTESIAN_POINT ( 'NONE',  ( 0.000000000000000000, 0.000000000000000000, 253.0000000000000000 ) ) ;
#102 = CIRCLE ( 'NONE', #300, 2.200000000000000178 ) ;
#103 = EDGE_LOOP ( 'NONE', ( #35, #266, #91, #207 ) ) ;
#104 = CC_DESIGN_DATE_AND_TIME_ASSIGNMENT ( #98, #37, ( #80 ) ) ;
#105 = PRODUCT ( '0bc2', '0bc2', '', ( #127 ) ) ;
#106 = EDGE_CURVE ( 'NONE', #239, #241, #232, .T. ) ;
#107 = CC_DESIGN_SECURITY_CLASSIFICATION ( #10, ( #146 ) ) ;
#108 = DIRECTION ( 'NONE',  ( 1.000000000000000000, 0.000000000000000000, 0.000000000000000000 ) ) ;
#109 = COORDINATED_UNIVERSAL_TIME_OFFSET ( 1, 0, .AHEAD. ) ;
#110 = DIRECTION ( 'NONE',  ( 0.000000000000000000, 0.000000000000000000, 1.000000000000000000 ) ) ;
#111 = CYLINDRICAL_SURFACE ( 'NONE', #246, 2.000000000000000000 ) ;
#112 = DIRECTION ( 'NONE',  ( -0.000000000000000000, -0.000000000000000000, -1.000000000000000000 ) ) ;
#113 = CIRCLE ( 'NONE', #290, 4.000000000000000000 ) ;
#114 = AXIS2_PLACEMENT_3D ( 'NONE', #201, #56, #264 ) ;
#115 = DIRECTION ( 'NONE',  ( 0.000000000000000000, 0.000000000000000000, 1.000000000000000000 ) ) ;
#116 = FACE_BOUND ( 'NONE', #148, .T. ) ;
#117 = VERTEX_POINT ( 'NONE', #227 ) ;
#118 = APPROVAL ( #220, 'NEURÈENÝ' ) ;
#119 = TOROIDAL_SURFACE ( 'NONE', #296, 2.200000000000000178, 0.2000000000000000111 ) ;
#120 = LOCAL_TIME ( 14, 51, 1.000000000000000000, #288 ) ;
#121 = EDGE_CURVE ( 'NONE', #202, #13, #274, .T. ) ;
#122 = ORIENTED_EDGE ( 'NONE', *, *, #106, .F. ) ;
#123 = CALENDAR_DATE ( 2022, 7, 7 ) ;
#124 = DIRECTION ( 'NONE',  ( 1.000000000000000000, 0.000000000000000000, 0.000000000000000000 ) ) ;
#125 = DIRECTION ( 'NONE',  ( -0.000000000000000000, -0.000000000000000000, -1.000000000000000000 ) ) ;
#126 = MANIFOLD_SOLID_BREP ( 'Zaoblit1', #135 ) ;
#127 = MECHANICAL_CONTEXT ( 'NONE', #96, 'mechanical' ) ;
#128 = CIRCLE ( 'NONE', #301, 4.000000000000000000 ) ;
#129 = EDGE_LOOP ( 'NONE', ( #92, #194, #263, #79 ) ) ;
#130 = PERSON_AND_ORGANIZATION ( #24, #28 ) ;
#131 = ADVANCED_FACE ( 'NONE', ( #46 ), #85, .T. ) ;
#132 = ORIENTED_EDGE ( 'NONE', *, *, #65, .T. ) ;
#133 = APPROVAL ( #247, 'NEURÈENÝ' ) ;
#134 = APPROVAL_ROLE ( '' ) ;
#135 = CLOSED_SHELL ( 'NONE', ( #33, #286, #184, #131, #38, #261, #61, #138, #5 ) ) ;
#136 = ORIENTED_EDGE ( 'NONE', *, *, #83, .T. ) ;
#137 = APPROVAL_DATE_TIME ( #84, #118 ) ;
#138 = ADVANCED_FACE ( 'NONE', ( #252 ), #302, .T. ) ;
#139 = AXIS2_PLACEMENT_3D ( 'NONE', #87, #115, #108 ) ;
#140 = AXIS2_PLACEMENT_3D ( 'NONE', #101, #125, #243 ) ;
#141 = DIRECTION ( 'NONE',  ( 1.000000000000000000, 0.000000000000000000, -0.000000000000000000 ) ) ;
#142 = CARTESIAN_POINT ( 'NONE',  ( 0.000000000000000000, 0.000000000000000000, 3.000000000000000000 ) ) ;
#143 = CARTESIAN_POINT ( 'NONE',  ( 0.000000000000000000, 0.000000000000000000, 253.0000000000000000 ) ) ;
#144 = CARTESIAN_POINT ( 'NONE',  ( -4.000000000000000000, 0.000000000000000000, 3.000000000000000000 ) ) ;
#145 = EDGE_CURVE ( 'NONE', #1, #239, #188, .T. ) ;
#146 = PRODUCT_DEFINITION_FORMATION_WITH_SPECIFIED_SOURCE ( 'LIBOVOLNÝ', '', #105, .NOT_KNOWN. ) ;
#147 = CARTESIAN_POINT ( 'NONE',  ( -2.200000000000000178, 2.694222958124177006E-16, 3.000000000000004441 ) ) ;
#148 = EDGE_LOOP ( 'NONE', ( #217, #235 ) ) ;
#149 = EDGE_LOOP ( 'NONE', ( #97, #155, #270, #297 ) ) ;
#150 = VERTEX_POINT ( 'NONE', #275 ) ;
#151 = CALENDAR_DATE ( 2022, 7, 7 ) ;
#152 = FACE_OUTER_BOUND ( 'NONE', #160, .T. ) ;
#153 = APPROVAL_STATUS ( 'not_yet_approved' ) ;
#154 =( GEOMETRIC_REPRESENTATION_CONTEXT ( 3 ) GLOBAL_UNCERTAINTY_ASSIGNED_CONTEXT ( ( #100 ) ) GLOBAL_UNIT_ASSIGNED_CONTEXT ( ( #265, #93, #240 ) ) REPRESENTATION_CONTEXT ( 'NONE', 'WORKASPACE' ) );
#155 = ORIENTED_EDGE ( 'NONE', *, *, #59, .T. ) ;
#156 = PERSON_AND_ORGANIZATION ( #24, #28 ) ;
#157 = PRODUCT_DEFINITION_SHAPE ( 'NONE', 'NONE',  #80 ) ;
#158 = CC_DESIGN_PERSON_AND_ORGANIZATION_ASSIGNMENT ( #248, #163, ( #10 ) ) ;
#159 = PERSON_AND_ORGANIZATION_ROLE ( 'design_supplier' ) ;
#160 = EDGE_LOOP ( 'NONE', ( #259, #27 ) ) ;
#161 = PERSON_AND_ORGANIZATION ( #24, #28 ) ;
#162 = AXIS2_PLACEMENT_3D ( 'NONE', #143, #89, #213 ) ;
#163 = PERSON_AND_ORGANIZATION_ROLE ( 'classification_officer' ) ;
#164 = CARTESIAN_POINT ( 'NONE',  ( 0.000000000000000000, 0.000000000000000000, 3.000000000000000000 ) ) ;
#165 = AXIS2_PLACEMENT_3D ( 'NONE', #249, #110, #281 ) ;
#166 = AXIS2_PLACEMENT_3D ( 'NONE', #191, #306, #141 ) ;
#167 = CARTESIAN_POINT ( 'NONE',  ( 0.000000000000000000, 0.000000000000000000, 3.000000000000000000 ) ) ;
#168 = CARTESIAN_POINT ( 'NONE',  ( 0.000000000000000000, 0.000000000000000000, 3.000000000000000000 ) ) ;
#169 = CARTESIAN_POINT ( 'NONE',  ( 4.000000000000000000, 4.898587196589412829E-16, 3.000000000000000000 ) ) ;
#170 = CIRCLE ( 'NONE', #273, 0.2000000000000000944 ) ;
#171 = DIRECTION ( 'NONE',  ( -0.000000000000000000, -0.000000000000000000, -1.000000000000000000 ) ) ;
#172 = AXIS2_PLACEMENT_3D ( 'NONE', #177, #9, #182 ) ;
#173 = ORIENTED_EDGE ( 'NONE', *, *, #83, .F. ) ;
#174 = CARTESIAN_POINT ( 'NONE',  ( 0.000000000000000000, 0.000000000000000000, 3.200000000000008171 ) ) ;
#175 = DIRECTION ( 'NONE',  ( 0.000000000000000000, 0.000000000000000000, 1.000000000000000000 ) ) ;
#176 = VECTOR ( 'NONE', #307, 1000.000000000000000 ) ;
#177 = CARTESIAN_POINT ( 'NONE',  ( 0.000000000000000000, 0.000000000000000000, 0.000000000000000000 ) ) ;
#178 = APPLICATION_PROTOCOL_DEFINITION ( 'international standard', 'config_control_design', 1994, #200 ) ;
#179 = AXIS2_PLACEMENT_3D ( 'NONE', #198, #204, #271 ) ;
#180 = CIRCLE ( 'NONE', #45, 0.2000000000000000944 ) ;
#181 = APPROVAL ( #153, 'NEURÈENÝ' ) ;
#182 = DIRECTION ( 'NONE',  ( 1.000000000000000000, 0.000000000000000000, -0.000000000000000000 ) ) ;
#183 = PERSON_AND_ORGANIZATION_ROLE ( 'creator' ) ;
#184 = ADVANCED_FACE ( 'NONE', ( #189 ), #66, .T. ) ;
#185 = AXIS2_PLACEMENT_3D ( 'NONE', #253, #22, #278 ) ;
#186 = LINE ( 'NONE', #216, #256 ) ;
#187 = DIRECTION ( 'NONE',  ( -0.000000000000000000, -0.000000000000000000, -1.000000000000000000 ) ) ;
#188 = CIRCLE ( 'NONE', #139, 4.000000000000000000 ) ;
#189 = FACE_OUTER_BOUND ( 'NONE', #129, .T. ) ;
#190 = CARTESIAN_POINT ( 'NONE',  ( 2.000000000000000000, 2.449293598294706414E-16, 3.200000000000008171 ) ) ;
#191 = CARTESIAN_POINT ( 'NONE',  ( 0.000000000000000000, 0.000000000000000000, 3.000000000000000000 ) ) ;
#192 = EDGE_CURVE ( 'NONE', #239, #1, #113, .T. ) ;
#193 = DIRECTION ( 'NONE',  ( 1.000000000000000000, 0.000000000000000000, 0.000000000000000000 ) ) ;
#194 = ORIENTED_EDGE ( 'NONE', *, *, #106, .T. ) ;
#195 = ORIENTED_EDGE ( 'NONE', *, *, #199, .F. ) ;
#196 = APPROVAL_ROLE ( '' ) ;
#197 = ORIENTED_EDGE ( 'NONE', *, *, #57, .T. ) ;
#198 = CARTESIAN_POINT ( 'NONE',  ( 0.000000000000000000, 0.000000000000000000, 3.200000000000008171 ) ) ;
#199 = EDGE_CURVE ( 'NONE', #244, #26, #262, .T. ) ;
#200 = APPLICATION_CONTEXT ( 'configuration controlled 3d designs of mechanical parts and assemblies' ) ;
#201 = CARTESIAN_POINT ( 'NONE',  ( 0.000000000000000000, 0.000000000000000000, 0.000000000000000000 ) ) ;
#202 = VERTEX_POINT ( 'NONE', #190 ) ;
#203 = EDGE_CURVE ( 'NONE', #1, #150, #255, .T. ) ;
#204 = DIRECTION ( 'NONE',  ( 0.000000000000000000, 0.000000000000000000, 1.000000000000000000 ) ) ;
#205 = VERTEX_POINT ( 'NONE', #25 ) ;
#206 = CARTESIAN_POINT ( 'NONE',  ( 2.200000000000000178, 0.000000000000000000, 3.000000000000004441 ) ) ;
#207 = ORIENTED_EDGE ( 'NONE', *, *, #62, .F. ) ;
#208 = SHAPE_DEFINITION_REPRESENTATION ( #157, #209 ) ;
#209 = ADVANCED_BREP_SHAPE_REPRESENTATION ( '0bc2', ( #126, #114 ), #154 ) ;
#210 = DIRECTION ( 'NONE',  ( 1.000000000000000000, 0.000000000000000000, 0.000000000000000000 ) ) ;
#211 = CC_DESIGN_PERSON_AND_ORGANIZATION_ASSIGNMENT ( #130, #245, ( #105 ) ) ;
#212 = DATE_AND_TIME ( #42, #4 ) ;
#213 = DIRECTION ( 'NONE',  ( 1.000000000000000000, 0.000000000000000000, 0.000000000000000000 ) ) ;
#214 = DIRECTION ( 'NONE',  ( 0.000000000000000000, 0.000000000000000000, 1.000000000000000000 ) ) ;
#215 = DIRECTION ( 'NONE',  ( -0.000000000000000000, -0.000000000000000000, -1.000000000000000000 ) ) ;
#216 = CARTESIAN_POINT ( 'NONE',  ( 2.000000000000000000, 2.449293598294706414E-16, 253.0000000000000000 ) ) ;
#217 = ORIENTED_EDGE ( 'NONE', *, *, #199, .T. ) ;
#218 = EDGE_LOOP ( 'NONE', ( #277, #284, #195, #52 ) ) ;
#219 = DIRECTION ( 'NONE',  ( 0.000000000000000000, 0.000000000000000000, 1.000000000000000000 ) ) ;
#220 = APPROVAL_STATUS ( 'not_yet_approved' ) ;
#221 = CARTESIAN_POINT ( 'NONE',  ( -2.200000000000000178, 2.694222958124177006E-16, 3.200000000000008171 ) ) ;
#222 = COORDINATED_UNIVERSAL_TIME_OFFSET ( 1, 0, .AHEAD. ) ;
#223 = AXIS2_PLACEMENT_3D ( 'NONE', #164, #112, #88 ) ;
#224 = CC_DESIGN_APPROVAL ( #133, ( #10 ) ) ;
#225 = DIRECTION ( 'NONE',  ( 1.000000000000000000, 0.000000000000000000, 0.000000000000000000 ) ) ;
#226 = CALENDAR_DATE ( 2022, 7, 7 ) ;
#227 = CARTESIAN_POINT ( 'NONE',  ( -2.000000000000000000, 0.000000000000000000, 253.0000000000000000 ) ) ;
#228 = COORDINATED_UNIVERSAL_TIME_OFFSET ( 1, 0, .AHEAD. ) ;
#229 = APPROVAL_PERSON_ORGANIZATION ( #267, #181, #12 ) ;
#230 = CARTESIAN_POINT ( 'NONE',  ( 2.200000000000000178, 0.000000000000000000, 3.200000000000008171 ) ) ;
#231 = DIRECTION ( 'NONE',  ( -1.000000000000000000, 0.000000000000000000, 0.000000000000000000 ) ) ;
#232 = LINE ( 'NONE', #169, #44 ) ;
#233 = DIRECTION ( 'NONE',  ( -0.000000000000000000, -0.000000000000000000, -1.000000000000000000 ) ) ;
#234 = DIRECTION ( 'NONE',  ( 1.000000000000000000, 0.000000000000000000, 0.000000000000000000 ) ) ;
#235 = ORIENTED_EDGE ( 'NONE', *, *, #62, .T. ) ;
#236 = ORIENTED_EDGE ( 'NONE', *, *, #192, .T. ) ;
#237 = CC_DESIGN_DATE_AND_TIME_ASSIGNMENT ( #303, #63, ( #10 ) ) ;
#238 = DATE_AND_TIME ( #123, #81 ) ;
#239 = VERTEX_POINT ( 'NONE', #78 ) ;
#240 =( NAMED_UNIT ( * ) SI_UNIT ( $, .STERADIAN. ) SOLID_ANGLE_UNIT ( ) );
#241 = VERTEX_POINT ( 'NONE', #32 ) ;
#242 = FACE_OUTER_BOUND ( 'NONE', #149, .T. ) ;
#243 = DIRECTION ( 'NONE',  ( -1.000000000000000000, 0.000000000000000000, 0.000000000000000000 ) ) ;
#244 = VERTEX_POINT ( 'NONE', #206 ) ;
#245 = PERSON_AND_ORGANIZATION_ROLE ( 'design_owner' ) ;
#246 = AXIS2_PLACEMENT_3D ( 'NONE', #304, #171, #231 ) ;
#247 = APPROVAL_STATUS ( 'not_yet_approved' ) ;
#248 = PERSON_AND_ORGANIZATION ( #24, #28 ) ;
#249 = CARTESIAN_POINT ( 'NONE',  ( 0.000000000000000000, 0.000000000000000000, 253.0000000000000000 ) ) ;
#250 = EDGE_CURVE ( 'NONE', #150, #241, #128, .T. ) ;
#251 = LOCAL_TIME ( 14, 51, 1.000000000000000000, #30 ) ;
#252 = FACE_OUTER_BOUND ( 'NONE', #8, .T. ) ;
#253 = CARTESIAN_POINT ( 'NONE',  ( 0.000000000000000000, 0.000000000000000000, 3.200000000000008171 ) ) ;
#254 = EDGE_CURVE ( 'NONE', #13, #202, #73, .T. ) ;
#255 = LINE ( 'NONE', #144, #257 ) ;
#256 = VECTOR ( 'NONE', #86, 1000.000000000000000 ) ;
#257 = VECTOR ( 'NONE', #233, 1000.000000000000000 ) ;
#258 = DIRECTION ( 'NONE',  ( 0.000000000000000000, 0.000000000000000000, -1.000000000000000000 ) ) ;
#259 = ORIENTED_EDGE ( 'NONE', *, *, #250, .F. ) ;
#260 = DIRECTION ( 'NONE',  ( 0.000000000000000000, 0.000000000000000000, 1.000000000000000000 ) ) ;
#261 = ADVANCED_FACE ( 'NONE', ( #152 ), #34, .F. ) ;
#262 = CIRCLE ( 'NONE', #223, 2.200000000000000178 ) ;
#263 = ORIENTED_EDGE ( 'NONE', *, *, #16, .T. ) ;
#264 = DIRECTION ( 'NONE',  ( 1.000000000000000000, 0.000000000000000000, 0.000000000000000000 ) ) ;
#265 =( LENGTH_UNIT ( ) NAMED_UNIT ( * ) SI_UNIT ( .MILLI., .METRE. ) );
#266 = ORIENTED_EDGE ( 'NONE', *, *, #121, .F. ) ;
#267 = PERSON_AND_ORGANIZATION ( #24, #28 ) ;
#268 = AXIS2_PLACEMENT_3D ( 'NONE', #17, #214, #305 ) ;
#269 = DIRECTION ( 'NONE',  ( 0.000000000000000000, 0.000000000000000000, 1.000000000000000000 ) ) ;
#270 = ORIENTED_EDGE ( 'NONE', *, *, #121, .T. ) ;
#271 = DIRECTION ( 'NONE',  ( 1.000000000000000000, 0.000000000000000000, 0.000000000000000000 ) ) ;
#272 = SECURITY_CLASSIFICATION_LEVEL ( 'unclassified' ) ;
#273 = AXIS2_PLACEMENT_3D ( 'NONE', #230, #43, #258 ) ;
#274 = CIRCLE ( 'NONE', #185, 2.000000000000000000 ) ;
#275 = CARTESIAN_POINT ( 'NONE',  ( -4.000000000000000000, 0.000000000000000000, 0.000000000000000000 ) ) ;
#276 = CC_DESIGN_PERSON_AND_ORGANIZATION_ASSIGNMENT ( #156, #36, ( #80 ) ) ;
#277 = ORIENTED_EDGE ( 'NONE', *, *, #254, .F. ) ;
#278 = DIRECTION ( 'NONE',  ( 1.000000000000000000, 0.000000000000000000, 0.000000000000000000 ) ) ;
#279 = CIRCLE ( 'NONE', #162, 2.000000000000000000 ) ;
#280 = DIRECTION ( 'NONE',  ( -0.000000000000000000, -0.000000000000000000, -1.000000000000000000 ) ) ;
#281 = DIRECTION ( 'NONE',  ( 1.000000000000000000, 0.000000000000000000, 0.000000000000000000 ) ) ;
#282 = LINE ( 'NONE', #72, #176 ) ;
#283 = APPROVAL_PERSON_ORGANIZATION ( #15, #118, #196 ) ;
#284 = ORIENTED_EDGE ( 'NONE', *, *, #11, .T. ) ;
#285 = EDGE_LOOP ( 'NONE', ( #6, #173, #197, #40 ) ) ;
#286 = ADVANCED_FACE ( 'NONE', ( #242 ), #295, .T. ) ;
#287 = FACE_OUTER_BOUND ( 'NONE', #74, .T. ) ;
#288 = COORDINATED_UNIVERSAL_TIME_OFFSET ( 1, 0, .AHEAD. ) ;
#289 = CIRCLE ( 'NONE', #18, 4.000000000000000000 ) ;
#290 = AXIS2_PLACEMENT_3D ( 'NONE', #168, #47, #23 ) ;
#291 = CARTESIAN_POINT ( 'NONE',  ( 0.000000000000000000, 0.000000000000000000, 0.000000000000000000 ) ) ;
#292 = ORIENTED_EDGE ( 'NONE', *, *, #203, .T. ) ;
#293 = DESIGN_CONTEXT ( 'detailed design', #200, 'design' ) ;
#294 = ORIENTED_EDGE ( 'NONE', *, *, #250, .T. ) ;
#295 = CYLINDRICAL_SURFACE ( 'NONE', #140, 2.000000000000000000 ) ;
#296 = AXIS2_PLACEMENT_3D ( 'NONE', #77, #175, #234 ) ;
#297 = ORIENTED_EDGE ( 'NONE', *, *, #57, .F. ) ;
#298 = APPLICATION_PROTOCOL_DEFINITION ( 'international standard', 'config_control_design', 1994, #96 ) ;
#299 = CALENDAR_DATE ( 2022, 7, 7 ) ;
#300 = AXIS2_PLACEMENT_3D ( 'NONE', #167, #21, #210 ) ;
#301 = AXIS2_PLACEMENT_3D ( 'NONE', #291, #269, #225 ) ;
#302 = PLANE ( 'NONE',  #268 ) ;
#303 = DATE_AND_TIME ( #299, #60 ) ;
#304 = CARTESIAN_POINT ( 'NONE',  ( 0.000000000000000000, 0.000000000000000000, 253.0000000000000000 ) ) ;
#305 = DIRECTION ( 'NONE',  ( 1.000000000000000000, 0.000000000000000000, -0.000000000000000000 ) ) ;
#306 = DIRECTION ( 'NONE',  ( 0.000000000000000000, 0.000000000000000000, 1.000000000000000000 ) ) ;
#307 = DIRECTION ( 'NONE',  ( -0.000000000000000000, -0.000000000000000000, -1.000000000000000000 ) ) ;
ENDSEC;
END-ISO-10303-21;
