ISO-10303-21;
HEADER;
FILE_DESCRIPTION (( 'STEP AP203' ),
    '1' );
FILE_NAME ('657a.STEP',
    '2022-06-30T20:24:54',
    ( '' ),
    ( '' ),
    'SwSTEP 2.0',
    'SolidWorks 2019',
    '' );
FILE_SCHEMA (( 'CONFIG_CONTROL_DESIGN' ));
ENDSEC;

DATA;
#1 = DIRECTION ( 'NONE',  ( -0.000000000000000000, -0.000000000000000000, -1.000000000000000000 ) ) ;
#2 = DESIGN_CONTEXT ( 'detailed design', #85, 'design' ) ;
#3 = EDGE_CURVE ( 'NONE', #244, #162, #220, .T. ) ;
#4 = CIRCLE ( 'NONE', #83, 1.000000000000000000 ) ;
#5 = CC_DESIGN_APPROVAL ( #123, ( #140 ) ) ;
#6 = PERSON_AND_ORGANIZATION ( #249, #127 ) ;
#7 = APPROVAL_DATE_TIME ( #124, #123 ) ;
#8 = CALENDAR_DATE ( 2022, 30, 6 ) ;
#9 = ORIENTED_EDGE ( 'NONE', *, *, #94, .F. ) ;
#10 = CC_DESIGN_PERSON_AND_ORGANIZATION_ASSIGNMENT ( #91, #229, ( #52 ) ) ;
#11 = AXIS2_PLACEMENT_3D ( 'NONE', #99, #155, #34 ) ;
#12 = PERSON_AND_ORGANIZATION_ROLE ( 'creator' ) ;
#13 = ORIENTED_EDGE ( 'NONE', *, *, #94, .T. ) ;
#14 = CARTESIAN_POINT ( 'NONE',  ( -1.000000000000000000, 0.000000000000000000, 102.0000000000000142 ) ) ;
#15 =( GEOMETRIC_REPRESENTATION_CONTEXT ( 3 ) GLOBAL_UNCERTAINTY_ASSIGNED_CONTEXT ( ( #199 ) ) GLOBAL_UNIT_ASSIGNED_CONTEXT ( ( #33, #51, #211 ) ) REPRESENTATION_CONTEXT ( 'NONE', 'WORKASPACE' ) );
#16 = ORIENTED_EDGE ( 'NONE', *, *, #217, .T. ) ;
#17 = APPROVAL_DATE_TIME ( #190, #219 ) ;
#18 = CARTESIAN_POINT ( 'NONE',  ( -2.000000000000000000, 0.000000000000000000, 0.000000000000000000 ) ) ;
#19 = CLOSED_SHELL ( 'NONE', ( #141, #46, #112, #235, #101, #237, #212 ) ) ;
#20 = CARTESIAN_POINT ( 'NONE',  ( 0.000000000000000000, 0.000000000000000000, 2.000000000000000000 ) ) ;
#21 = APPROVAL_STATUS ( 'not_yet_approved' ) ;
#22 = ORIENTED_EDGE ( 'NONE', *, *, #32, .F. ) ;
#23 = AXIS2_PLACEMENT_3D ( 'NONE', #74, #231, #194 ) ;
#24 = CALENDAR_DATE ( 2022, 30, 6 ) ;
#25 = AXIS2_PLACEMENT_3D ( 'NONE', #134, #230, #233 ) ;
#26 = CARTESIAN_POINT ( 'NONE',  ( 0.000000000000000000, 0.000000000000000000, 0.000000000000000000 ) ) ;
#27 = CARTESIAN_POINT ( 'NONE',  ( 2.000000000000000000, 2.449293598294706414E-16, 2.000000000000000000 ) ) ;
#28 = FACE_OUTER_BOUND ( 'NONE', #64, .T. ) ;
#29 = ORIENTED_EDGE ( 'NONE', *, *, #252, .F. ) ;
#30 = AXIS2_PLACEMENT_3D ( 'NONE', #109, #226, #31 ) ;
#31 = DIRECTION ( 'NONE',  ( 1.000000000000000000, 0.000000000000000000, 0.000000000000000000 ) ) ;
#32 = EDGE_CURVE ( 'NONE', #121, #160, #148, .T. ) ;
#33 =( LENGTH_UNIT ( ) NAMED_UNIT ( * ) SI_UNIT ( .MILLI., .METRE. ) );
#34 = DIRECTION ( 'NONE',  ( 1.000000000000000000, 0.000000000000000000, 0.000000000000000000 ) ) ;
#35 = CARTESIAN_POINT ( 'NONE',  ( 0.000000000000000000, 0.000000000000000000, 2.000000000000000000 ) ) ;
#36 = DIRECTION ( 'NONE',  ( 0.000000000000000000, 0.000000000000000000, 1.000000000000000000 ) ) ;
#37 = DIRECTION ( 'NONE',  ( 1.000000000000000000, 0.000000000000000000, -0.000000000000000000 ) ) ;
#38 = CC_DESIGN_SECURITY_CLASSIFICATION ( #140, ( #142 ) ) ;
#39 = APPROVAL_ROLE ( '' ) ;
#40 = VERTEX_POINT ( 'NONE', #110 ) ;
#41 = AXIS2_PLACEMENT_3D ( 'NONE', #20, #36, #37 ) ;
#42 = ORIENTED_EDGE ( 'NONE', *, *, #245, .F. ) ;
#43 = CALENDAR_DATE ( 2022, 30, 6 ) ;
#44 = VERTEX_POINT ( 'NONE', #164 ) ;
#45 = ORIENTED_EDGE ( 'NONE', *, *, #181, .F. ) ;
#46 = ADVANCED_FACE ( 'NONE', ( #28 ), #49, .T. ) ;
#47 = CC_DESIGN_DATE_AND_TIME_ASSIGNMENT ( #82, #176, ( #140 ) ) ;
#48 = VECTOR ( 'NONE', #232, 1000.000000000000000 ) ;
#49 = CYLINDRICAL_SURFACE ( 'NONE', #191, 2.000000000000000000 ) ;
#50 = EDGE_LOOP ( 'NONE', ( #210, #67 ) ) ;
#51 =( NAMED_UNIT ( * ) PLANE_ANGLE_UNIT ( ) SI_UNIT ( $, .RADIAN. ) );
#52 = PRODUCT ( '657a', '657a', '', ( #108 ) ) ;
#53 = CALENDAR_DATE ( 2022, 30, 6 ) ;
#54 = DIRECTION ( 'NONE',  ( -0.000000000000000000, -0.000000000000000000, -1.000000000000000000 ) ) ;
#55 = CARTESIAN_POINT ( 'NONE',  ( 0.000000000000000000, 0.000000000000000000, 2.000000000000000000 ) ) ;
#56 = CC_DESIGN_PERSON_AND_ORGANIZATION_ASSIGNMENT ( #236, #177, ( #140 ) ) ;
#57 = CIRCLE ( 'NONE', #149, 2.000000000000000000 ) ;
#58 = CARTESIAN_POINT ( 'NONE',  ( 0.000000000000000000, 0.000000000000000000, 2.000000000000000000 ) ) ;
#59 = AXIS2_PLACEMENT_3D ( 'NONE', #174, #1, #80 ) ;
#60 = CYLINDRICAL_SURFACE ( 'NONE', #167, 2.000000000000000000 ) ;
#61 = DIRECTION ( 'NONE',  ( 1.000000000000000000, 0.000000000000000000, 0.000000000000000000 ) ) ;
#62 = CIRCLE ( 'NONE', #73, 2.000000000000000000 ) ;
#63 = APPROVAL_ROLE ( '' ) ;
#64 = EDGE_LOOP ( 'NONE', ( #150, #158, #225, #22 ) ) ;
#65 = DATE_AND_TIME ( #24, #90 ) ;
#66 = ORIENTED_EDGE ( 'NONE', *, *, #3, .F. ) ;
#67 = ORIENTED_EDGE ( 'NONE', *, *, #161, .T. ) ;
#68 = ORIENTED_EDGE ( 'NONE', *, *, #117, .T. ) ;
#69 = CARTESIAN_POINT ( 'NONE',  ( 0.000000000000000000, 0.000000000000000000, 0.000000000000000000 ) ) ;
#70 = ORIENTED_EDGE ( 'NONE', *, *, #3, .T. ) ;
#71 = PRODUCT_DEFINITION_SHAPE ( 'NONE', 'NONE',  #137 ) ;
#72 = COORDINATED_UNIVERSAL_TIME_OFFSET ( 1, 0, .AHEAD. ) ;
#73 = AXIS2_PLACEMENT_3D ( 'NONE', #55, #195, #169 ) ;
#74 = CARTESIAN_POINT ( 'NONE',  ( 0.000000000000000000, 0.000000000000000000, 102.0000000000000142 ) ) ;
#75 = DIRECTION ( 'NONE',  ( 0.000000000000000000, 0.000000000000000000, 1.000000000000000000 ) ) ;
#76 = CC_DESIGN_APPROVAL ( #219, ( #137 ) ) ;
#77 = DIRECTION ( 'NONE',  ( -1.000000000000000000, 0.000000000000000000, 0.000000000000000000 ) ) ;
#78 = CARTESIAN_POINT ( 'NONE',  ( 2.000000000000000000, 2.449293598294706414E-16, 2.000000000000000000 ) ) ;
#79 = CC_DESIGN_DATE_AND_TIME_ASSIGNMENT ( #105, #159, ( #137 ) ) ;
#80 = DIRECTION ( 'NONE',  ( -1.000000000000000000, 0.000000000000000000, 0.000000000000000000 ) ) ;
#81 = VECTOR ( 'NONE', #54, 1000.000000000000000 ) ;
#82 = DATE_AND_TIME ( #8, #171 ) ;
#83 = AXIS2_PLACEMENT_3D ( 'NONE', #115, #75, #61 ) ;
#84 = CALENDAR_DATE ( 2022, 30, 6 ) ;
#85 = APPLICATION_CONTEXT ( 'configuration controlled 3d designs of mechanical parts and assemblies' ) ;
#86 = CARTESIAN_POINT ( 'NONE',  ( -2.000000000000000000, 0.000000000000000000, 2.000000000000000000 ) ) ;
#87 = DIRECTION ( 'NONE',  ( 0.000000000000000000, 0.000000000000000000, 1.000000000000000000 ) ) ;
#88 = ORIENTED_EDGE ( 'NONE', *, *, #32, .T. ) ;
#89 = CIRCLE ( 'NONE', #11, 2.000000000000000000 ) ;
#90 = LOCAL_TIME ( 22, 24, 54.00000000000000000, #102 ) ;
#91 = PERSON_AND_ORGANIZATION ( #249, #127 ) ;
#92 = EDGE_LOOP ( 'NONE', ( #186, #66 ) ) ;
#93 = LOCAL_TIME ( 22, 24, 54.00000000000000000, #72 ) ;
#94 = EDGE_CURVE ( 'NONE', #106, #162, #189, .T. ) ;
#95 = CC_DESIGN_PERSON_AND_ORGANIZATION_ASSIGNMENT ( #104, #179, ( #142 ) ) ;
#96 = DIRECTION ( 'NONE',  ( -1.000000000000000000, 0.000000000000000000, 0.000000000000000000 ) ) ;
#97 = CARTESIAN_POINT ( 'NONE',  ( 1.000000000000000000, 1.224646799147353207E-16, 102.0000000000000142 ) ) ;
#98 = AXIS2_PLACEMENT_3D ( 'NONE', #35, #215, #154 ) ;
#99 = CARTESIAN_POINT ( 'NONE',  ( 0.000000000000000000, 0.000000000000000000, 0.000000000000000000 ) ) ;
#100 = CYLINDRICAL_SURFACE ( 'NONE', #59, 1.000000000000000000 ) ;
#101 = ADVANCED_FACE ( 'NONE', ( #146 ), #203, .F. ) ;
#102 = COORDINATED_UNIVERSAL_TIME_OFFSET ( 1, 0, .AHEAD. ) ;
#103 = AXIS2_PLACEMENT_3D ( 'NONE', #26, #185, #183 ) ;
#104 = PERSON_AND_ORGANIZATION ( #249, #127 ) ;
#105 = DATE_AND_TIME ( #84, #254 ) ;
#106 = VERTEX_POINT ( 'NONE', #14 ) ;
#107 = DIRECTION ( 'NONE',  ( -0.000000000000000000, -0.000000000000000000, -1.000000000000000000 ) ) ;
#108 = MECHANICAL_CONTEXT ( 'NONE', #204, 'mechanical' ) ;
#109 = CARTESIAN_POINT ( 'NONE',  ( 0.000000000000000000, 0.000000000000000000, 2.000000000000000000 ) ) ;
#110 = CARTESIAN_POINT ( 'NONE',  ( 2.000000000000000000, 2.449293598294706414E-16, 0.000000000000000000 ) ) ;
#111 = APPLICATION_PROTOCOL_DEFINITION ( 'international standard', 'config_control_design', 1994, #204 ) ;
#112 = ADVANCED_FACE ( 'NONE', ( #213 ), #60, .T. ) ;
#113 = VECTOR ( 'NONE', #107, 1000.000000000000000 ) ;
#114 = LOCAL_TIME ( 22, 24, 54.00000000000000000, #143 ) ;
#115 = CARTESIAN_POINT ( 'NONE',  ( 0.000000000000000000, 0.000000000000000000, 102.0000000000000142 ) ) ;
#116 = FACE_OUTER_BOUND ( 'NONE', #208, .T. ) ;
#117 = EDGE_CURVE ( 'NONE', #162, #244, #250, .T. ) ;
#118 = DIRECTION ( 'NONE',  ( 1.000000000000000000, 0.000000000000000000, 0.000000000000000000 ) ) ;
#119 = LINE ( 'NONE', #97, #48 ) ;
#120 = PERSON_AND_ORGANIZATION ( #249, #127 ) ;
#121 = VERTEX_POINT ( 'NONE', #152 ) ;
#122 = SECURITY_CLASSIFICATION_LEVEL ( 'unclassified' ) ;
#123 = APPROVAL ( #157, 'NEURÈENÝ' ) ;
#124 = DATE_AND_TIME ( #43, #114 ) ;
#125 = CC_DESIGN_PERSON_AND_ORGANIZATION_ASSIGNMENT ( #222, #12, ( #137 ) ) ;
#126 = DIRECTION ( 'NONE',  ( -0.000000000000000000, -0.000000000000000000, -1.000000000000000000 ) ) ;
#127 = ORGANIZATION ( 'NEURÈENÝ', 'NEURÈENÝ', '' ) ;
#128 = EDGE_LOOP ( 'NONE', ( #45, #42 ) ) ;
#129 = PRODUCT_RELATED_PRODUCT_CATEGORY ( 'detail', '', ( #52 ) ) ;
#130 = VERTEX_POINT ( 'NONE', #78 ) ;
#131 = EDGE_LOOP ( 'NONE', ( #175, #16, #70, #9 ) ) ;
#132 = APPROVAL_PERSON_ORGANIZATION ( #120, #240, #39 ) ;
#133 = APPROVAL_ROLE ( '' ) ;
#134 = CARTESIAN_POINT ( 'NONE',  ( 0.000000000000000000, 0.000000000000000000, 2.000000000000000000 ) ) ;
#135 = AXIS2_PLACEMENT_3D ( 'NONE', #216, #136, #77 ) ;
#136 = DIRECTION ( 'NONE',  ( -0.000000000000000000, -0.000000000000000000, -1.000000000000000000 ) ) ;
#137 = PRODUCT_DEFINITION ( 'NEZNÁMÝ', '', #142, #2 ) ;
#138 = FACE_BOUND ( 'NONE', #92, .T. ) ;
#139 = DIRECTION ( 'NONE',  ( -0.000000000000000000, -0.000000000000000000, -1.000000000000000000 ) ) ;
#140 = SECURITY_CLASSIFICATION ( '', '', #122 ) ;
#141 = ADVANCED_FACE ( 'NONE', ( #193 ), #253, .T. ) ;
#142 = PRODUCT_DEFINITION_FORMATION_WITH_SPECIFIED_SOURCE ( 'LIBOVOLNÝ', '', #52, .NOT_KNOWN. ) ;
#143 = COORDINATED_UNIVERSAL_TIME_OFFSET ( 1, 0, .AHEAD. ) ;
#144 = ORIENTED_EDGE ( 'NONE', *, *, #196, .T. ) ;
#145 = PERSON_AND_ORGANIZATION_ROLE ( 'creator' ) ;
#146 = FACE_OUTER_BOUND ( 'NONE', #128, .T. ) ;
#147 = SHAPE_DEFINITION_REPRESENTATION ( #71, #165 ) ;
#148 = LINE ( 'NONE', #86, #214 ) ;
#149 = AXIS2_PLACEMENT_3D ( 'NONE', #69, #209, #246 ) ;
#150 = ORIENTED_EDGE ( 'NONE', *, *, #161, .F. ) ;
#151 = CARTESIAN_POINT ( 'NONE',  ( 0.000000000000000000, 0.000000000000000000, 2.000000000000000000 ) ) ;
#152 = CARTESIAN_POINT ( 'NONE',  ( -2.000000000000000000, 0.000000000000000000, 2.000000000000000000 ) ) ;
#153 = PLANE ( 'NONE',  #23 ) ;
#154 = DIRECTION ( 'NONE',  ( 1.000000000000000000, 0.000000000000000000, 0.000000000000000000 ) ) ;
#155 = DIRECTION ( 'NONE',  ( 0.000000000000000000, 0.000000000000000000, 1.000000000000000000 ) ) ;
#156 = CARTESIAN_POINT ( 'NONE',  ( 1.000000000000000000, 1.224646799147353207E-16, 2.000000000000000000 ) ) ;
#157 = APPROVAL_STATUS ( 'not_yet_approved' ) ;
#158 = ORIENTED_EDGE ( 'NONE', *, *, #252, .T. ) ;
#159 = DATE_TIME_ROLE ( 'creation_date' ) ;
#160 = VERTEX_POINT ( 'NONE', #18 ) ;
#161 = EDGE_CURVE ( 'NONE', #130, #121, #62, .T. ) ;
#162 = VERTEX_POINT ( 'NONE', #255 ) ;
#163 = LINE ( 'NONE', #27, #81 ) ;
#164 = CARTESIAN_POINT ( 'NONE',  ( 1.000000000000000000, 1.224646799147353207E-16, 102.0000000000000142 ) ) ;
#165 = ADVANCED_BREP_SHAPE_REPRESENTATION ( '657a', ( #180, #234 ), #15 ) ;
#166 = PERSON_AND_ORGANIZATION ( #249, #127 ) ;
#167 = AXIS2_PLACEMENT_3D ( 'NONE', #58, #139, #96 ) ;
#168 = CC_DESIGN_APPROVAL ( #240, ( #142 ) ) ;
#169 = DIRECTION ( 'NONE',  ( 1.000000000000000000, 0.000000000000000000, 0.000000000000000000 ) ) ;
#170 = DIRECTION ( 'NONE',  ( 0.000000000000000000, 0.000000000000000000, 1.000000000000000000 ) ) ;
#171 = LOCAL_TIME ( 22, 24, 54.00000000000000000, #224 ) ;
#172 = PLANE ( 'NONE',  #41 ) ;
#173 = EDGE_CURVE ( 'NONE', #121, #130, #243, .T. ) ;
#174 = CARTESIAN_POINT ( 'NONE',  ( 0.000000000000000000, 0.000000000000000000, 102.0000000000000142 ) ) ;
#175 = ORIENTED_EDGE ( 'NONE', *, *, #207, .F. ) ;
#176 = DATE_TIME_ROLE ( 'classification_date' ) ;
#177 = PERSON_AND_ORGANIZATION_ROLE ( 'classification_officer' ) ;
#178 = ORIENTED_EDGE ( 'NONE', *, *, #173, .F. ) ;
#179 = PERSON_AND_ORGANIZATION_ROLE ( 'design_supplier' ) ;
#180 = MANIFOLD_SOLID_BREP ( 'Pøidat vysunutím3', #19 ) ;
#181 = EDGE_CURVE ( 'NONE', #160, #40, #89, .T. ) ;
#182 = CC_DESIGN_PERSON_AND_ORGANIZATION_ASSIGNMENT ( #201, #145, ( #142 ) ) ;
#183 = DIRECTION ( 'NONE',  ( 1.000000000000000000, 0.000000000000000000, -0.000000000000000000 ) ) ;
#184 = CARTESIAN_POINT ( 'NONE',  ( 0.000000000000000000, 0.000000000000000000, 0.000000000000000000 ) ) ;
#185 = DIRECTION ( 'NONE',  ( 0.000000000000000000, 0.000000000000000000, 1.000000000000000000 ) ) ;
#186 = ORIENTED_EDGE ( 'NONE', *, *, #117, .F. ) ;
#187 = APPROVAL_PERSON_ORGANIZATION ( #166, #219, #133 ) ;
#188 = APPLICATION_PROTOCOL_DEFINITION ( 'international standard', 'config_control_design', 1994, #85 ) ;
#189 = LINE ( 'NONE', #227, #113 ) ;
#190 = DATE_AND_TIME ( #53, #93 ) ;
#191 = AXIS2_PLACEMENT_3D ( 'NONE', #151, #126, #228 ) ;
#192 = APPROVAL_PERSON_ORGANIZATION ( #6, #123, #63 ) ;
#193 = FACE_OUTER_BOUND ( 'NONE', #131, .T. ) ;
#194 = DIRECTION ( 'NONE',  ( 1.000000000000000000, 0.000000000000000000, -0.000000000000000000 ) ) ;
#195 = DIRECTION ( 'NONE',  ( 0.000000000000000000, 0.000000000000000000, 1.000000000000000000 ) ) ;
#196 = EDGE_CURVE ( 'NONE', #106, #44, #197, .T. ) ;
#197 = CIRCLE ( 'NONE', #202, 1.000000000000000000 ) ;
#198 = FACE_OUTER_BOUND ( 'NONE', #223, .T. ) ;
#199 = UNCERTAINTY_MEASURE_WITH_UNIT (LENGTH_MEASURE( 1.000000000000000082E-05 ), #33, 'distance_accuracy_value', 'NONE');
#200 = COORDINATED_UNIVERSAL_TIME_OFFSET ( 1, 0, .AHEAD. ) ;
#201 = PERSON_AND_ORGANIZATION ( #249, #127 ) ;
#202 = AXIS2_PLACEMENT_3D ( 'NONE', #251, #170, #118 ) ;
#203 = PLANE ( 'NONE',  #103 ) ;
#204 = APPLICATION_CONTEXT ( 'configuration controlled 3d designs of mechanical parts and assemblies' ) ;
#205 = DIRECTION ( 'NONE',  ( -0.000000000000000000, -0.000000000000000000, -1.000000000000000000 ) ) ;
#206 = DIRECTION ( 'NONE',  ( 1.000000000000000000, 0.000000000000000000, 0.000000000000000000 ) ) ;
#207 = EDGE_CURVE ( 'NONE', #44, #106, #4, .T. ) ;
#208 = EDGE_LOOP ( 'NONE', ( #144, #247 ) ) ;
#209 = DIRECTION ( 'NONE',  ( 0.000000000000000000, 0.000000000000000000, 1.000000000000000000 ) ) ;
#210 = ORIENTED_EDGE ( 'NONE', *, *, #173, .T. ) ;
#211 =( NAMED_UNIT ( * ) SI_UNIT ( $, .STERADIAN. ) SOLID_ANGLE_UNIT ( ) );
#212 = ADVANCED_FACE ( 'NONE', ( #116 ), #153, .T. ) ;
#213 = FACE_OUTER_BOUND ( 'NONE', #241, .T. ) ;
#214 = VECTOR ( 'NONE', #205, 1000.000000000000000 ) ;
#215 = DIRECTION ( 'NONE',  ( 0.000000000000000000, 0.000000000000000000, 1.000000000000000000 ) ) ;
#216 = CARTESIAN_POINT ( 'NONE',  ( 0.000000000000000000, 0.000000000000000000, 102.0000000000000142 ) ) ;
#217 = EDGE_CURVE ( 'NONE', #44, #244, #119, .T. ) ;
#218 = FACE_OUTER_BOUND ( 'NONE', #50, .T. ) ;
#219 = APPROVAL ( #248, 'NEURÈENÝ' ) ;
#220 = CIRCLE ( 'NONE', #30, 1.000000000000000000 ) ;
#221 = ORIENTED_EDGE ( 'NONE', *, *, #217, .F. ) ;
#222 = PERSON_AND_ORGANIZATION ( #249, #127 ) ;
#223 = EDGE_LOOP ( 'NONE', ( #221, #242, #13, #68 ) ) ;
#224 = COORDINATED_UNIVERSAL_TIME_OFFSET ( 1, 0, .AHEAD. ) ;
#225 = ORIENTED_EDGE ( 'NONE', *, *, #245, .T. ) ;
#226 = DIRECTION ( 'NONE',  ( 0.000000000000000000, 0.000000000000000000, 1.000000000000000000 ) ) ;
#227 = CARTESIAN_POINT ( 'NONE',  ( -1.000000000000000000, 0.000000000000000000, 102.0000000000000142 ) ) ;
#228 = DIRECTION ( 'NONE',  ( -1.000000000000000000, 0.000000000000000000, 0.000000000000000000 ) ) ;
#229 = PERSON_AND_ORGANIZATION_ROLE ( 'design_owner' ) ;
#230 = DIRECTION ( 'NONE',  ( 0.000000000000000000, 0.000000000000000000, 1.000000000000000000 ) ) ;
#231 = DIRECTION ( 'NONE',  ( 0.000000000000000000, 0.000000000000000000, 1.000000000000000000 ) ) ;
#232 = DIRECTION ( 'NONE',  ( -0.000000000000000000, -0.000000000000000000, -1.000000000000000000 ) ) ;
#233 = DIRECTION ( 'NONE',  ( 1.000000000000000000, 0.000000000000000000, 0.000000000000000000 ) ) ;
#234 = AXIS2_PLACEMENT_3D ( 'NONE', #184, #87, #206 ) ;
#235 = ADVANCED_FACE ( 'NONE', ( #138, #218 ), #172, .T. ) ;
#236 = PERSON_AND_ORGANIZATION ( #249, #127 ) ;
#237 = ADVANCED_FACE ( 'NONE', ( #198 ), #100, .T. ) ;
#238 = APPROVAL_DATE_TIME ( #65, #240 ) ;
#239 = ORIENTED_EDGE ( 'NONE', *, *, #181, .T. ) ;
#240 = APPROVAL ( #21, 'NEURÈENÝ' ) ;
#241 = EDGE_LOOP ( 'NONE', ( #29, #178, #88, #239 ) ) ;
#242 = ORIENTED_EDGE ( 'NONE', *, *, #196, .F. ) ;
#243 = CIRCLE ( 'NONE', #98, 2.000000000000000000 ) ;
#244 = VERTEX_POINT ( 'NONE', #156 ) ;
#245 = EDGE_CURVE ( 'NONE', #40, #160, #57, .T. ) ;
#246 = DIRECTION ( 'NONE',  ( 1.000000000000000000, 0.000000000000000000, 0.000000000000000000 ) ) ;
#247 = ORIENTED_EDGE ( 'NONE', *, *, #207, .T. ) ;
#248 = APPROVAL_STATUS ( 'not_yet_approved' ) ;
#249 = PERSON ( 'NEURÈENÝ', 'NEURÈENÝ', 'NEURÈENÝ', ('NEURÈENÝ'), ('NEURÈENÝ'), ('NEURÈENÝ') ) ;
#250 = CIRCLE ( 'NONE', #25, 1.000000000000000000 ) ;
#251 = CARTESIAN_POINT ( 'NONE',  ( 0.000000000000000000, 0.000000000000000000, 102.0000000000000142 ) ) ;
#252 = EDGE_CURVE ( 'NONE', #130, #40, #163, .T. ) ;
#253 = CYLINDRICAL_SURFACE ( 'NONE', #135, 1.000000000000000000 ) ;
#254 = LOCAL_TIME ( 22, 24, 54.00000000000000000, #200 ) ;
#255 = CARTESIAN_POINT ( 'NONE',  ( -1.000000000000000000, 0.000000000000000000, 2.000000000000000000 ) ) ;
ENDSEC;
END-ISO-10303-21;
