ISO-10303-21;
HEADER;
FILE_DESCRIPTION (( 'STEP AP203' ),
    '1' );
FILE_NAME ('bdf8.STEP',
    '2022-07-07T12:57:29',
    ( '' ),
    ( '' ),
    'SwSTEP 2.0',
    'SolidWorks 2019',
    '' );
FILE_SCHEMA (( 'CONFIG_CONTROL_DESIGN' ));
ENDSEC;

DATA;
#1 = PERSON_AND_ORGANIZATION_ROLE ( 'creator' ) ;
#2 = EDGE_CURVE ( 'NONE', #286, #123, #217, .T. ) ;
#3 = ORIENTED_EDGE ( 'NONE', *, *, #256, .T. ) ;
#4 = EDGE_LOOP ( 'NONE', ( #225, #99, #58, #127 ) ) ;
#5 = DIRECTION ( 'NONE',  ( -0.000000000000000000, -0.000000000000000000, -1.000000000000000000 ) ) ;
#6 = ORIENTED_EDGE ( 'NONE', *, *, #56, .F. ) ;
#7 = PLANE ( 'NONE',  #162 ) ;
#8 = EDGE_LOOP ( 'NONE', ( #103, #6 ) ) ;
#9 = PERSON_AND_ORGANIZATION ( #231, #69 ) ;
#10 = CARTESIAN_POINT ( 'NONE',  ( -1.100000000000000089, 0.000000000000000000, 2.200000000000007283 ) ) ;
#11 = PERSON_AND_ORGANIZATION_ROLE ( 'design_owner' ) ;
#12 = CYLINDRICAL_SURFACE ( 'NONE', #78, 1.100000000000000089 ) ;
#13 = EDGE_CURVE ( 'NONE', #204, #59, #161, .T. ) ;
#14 = DIRECTION ( 'NONE',  ( -0.000000000000000000, -0.000000000000000000, -1.000000000000000000 ) ) ;
#15 = EDGE_CURVE ( 'NONE', #204, #294, #227, .T. ) ;
#16 = TOROIDAL_SURFACE ( 'NONE', #39, 1.300000000000000266, 0.2000000000000000111 ) ;
#17 = PRODUCT ( 'bdf8', 'bdf8', '', ( #27 ) ) ;
#18 = LOCAL_TIME ( 14, 57, 29.00000000000000000, #120 ) ;
#19 = ADVANCED_FACE ( 'NONE', ( #272 ), #154, .F. ) ;
#20 = COORDINATED_UNIVERSAL_TIME_OFFSET ( 1, 0, .AHEAD. ) ;
#21 = PERSON_AND_ORGANIZATION_ROLE ( 'classification_officer' ) ;
#22 = CARTESIAN_POINT ( 'NONE',  ( 1.100000000000000089, 1.347111479062088503E-16, 202.0000000000000000 ) ) ;
#23 = PERSON_AND_ORGANIZATION ( #231, #69 ) ;
#24 = DIRECTION ( 'NONE',  ( 1.000000000000000000, 0.000000000000000000, 0.000000000000000000 ) ) ;
#25 = EDGE_LOOP ( 'NONE', ( #33, #62, #195, #249 ) ) ;
#26 = EDGE_LOOP ( 'NONE', ( #129, #77, #251, #285 ) ) ;
#27 = MECHANICAL_CONTEXT ( 'NONE', #118, 'mechanical' ) ;
#28 = DIRECTION ( 'NONE',  ( 0.000000000000000000, 0.000000000000000000, 1.000000000000000000 ) ) ;
#29 = EDGE_LOOP ( 'NONE', ( #3, #288 ) ) ;
#30 = APPROVAL_PERSON_ORGANIZATION ( #9, #115, #207 ) ;
#31 = DIRECTION ( 'NONE',  ( 0.000000000000000000, 0.000000000000000000, 1.000000000000000000 ) ) ;
#32 = DIRECTION ( 'NONE',  ( 0.000000000000000000, 0.000000000000000000, 1.000000000000000000 ) ) ;
#33 = ORIENTED_EDGE ( 'NONE', *, *, #197, .F. ) ;
#34 = ADVANCED_FACE ( 'NONE', ( #175 ), #144, .F. ) ;
#35 = DIRECTION ( 'NONE',  ( -1.000000000000000000, 0.000000000000000000, 0.000000000000000000 ) ) ;
#36 = CIRCLE ( 'NONE', #215, 1.100000000000000089 ) ;
#37 = PERSON_AND_ORGANIZATION_ROLE ( 'creator' ) ;
#38 = DIRECTION ( 'NONE',  ( -0.000000000000000000, -0.000000000000000000, -1.000000000000000000 ) ) ;
#39 = AXIS2_PLACEMENT_3D ( 'NONE', #131, #180, #87 ) ;
#40 = CC_DESIGN_DATE_AND_TIME_ASSIGNMENT ( #46, #240, ( #261 ) ) ;
#41 = CC_DESIGN_SECURITY_CLASSIFICATION ( #236, ( #128 ) ) ;
#42 = EDGE_CURVE ( 'NONE', #52, #163, #36, .T. ) ;
#43 = VECTOR ( 'NONE', #80, 1000.000000000000000 ) ;
#44 = DATE_AND_TIME ( #219, #18 ) ;
#45 = CC_DESIGN_APPROVAL ( #66, ( #236 ) ) ;
#46 = DATE_AND_TIME ( #89, #169 ) ;
#47 = CARTESIAN_POINT ( 'NONE',  ( 0.000000000000000000, 0.000000000000000000, 202.0000000000000000 ) ) ;
#48 = EDGE_CURVE ( 'NONE', #294, #156, #166, .T. ) ;
#49 = CIRCLE ( 'NONE', #297, 1.100000000000000089 ) ;
#50 = ORIENTED_EDGE ( 'NONE', *, *, #97, .T. ) ;
#51 = ORIENTED_EDGE ( 'NONE', *, *, #13, .F. ) ;
#52 = VERTEX_POINT ( 'NONE', #22 ) ;
#53 = ORIENTED_EDGE ( 'NONE', *, *, #301, .T. ) ;
#54 = DIRECTION ( 'NONE',  ( -1.000000000000000000, 1.224646799147353207E-16, 0.000000000000000000 ) ) ;
#55 = CC_DESIGN_PERSON_AND_ORGANIZATION_ASSIGNMENT ( #202, #11, ( #17 ) ) ;
#56 = EDGE_CURVE ( 'NONE', #156, #294, #279, .T. ) ;
#57 = DIRECTION ( 'NONE',  ( -1.000000000000000000, 0.000000000000000000, 0.000000000000000000 ) ) ;
#58 = ORIENTED_EDGE ( 'NONE', *, *, #2, .T. ) ;
#59 = VERTEX_POINT ( 'NONE', #98 ) ;
#60 = APPLICATION_PROTOCOL_DEFINITION ( 'international standard', 'config_control_design', 1994, #139 ) ;
#61 = CARTESIAN_POINT ( 'NONE',  ( 1.100000000000000089, 1.347111479062088503E-16, 202.0000000000000000 ) ) ;
#62 = ORIENTED_EDGE ( 'NONE', *, *, #254, .T. ) ;
#63 = AXIS2_PLACEMENT_3D ( 'NONE', #278, #68, #228 ) ;
#64 = CARTESIAN_POINT ( 'NONE',  ( 1.100000000000000089, 1.347111479062088503E-16, 2.200000000000007283 ) ) ;
#65 = FACE_OUTER_BOUND ( 'NONE', #152, .T. ) ;
#66 = APPROVAL ( #303, 'NEURÈENÝ' ) ;
#67 = DIRECTION ( 'NONE',  ( -0.000000000000000000, -0.000000000000000000, -1.000000000000000000 ) ) ;
#68 = DIRECTION ( 'NONE',  ( -0.000000000000000000, -0.000000000000000000, -1.000000000000000000 ) ) ;
#69 = ORGANIZATION ( 'NEURÈENÝ', 'NEURÈENÝ', '' ) ;
#70 = EDGE_CURVE ( 'NONE', #92, #176, #273, .T. ) ;
#71 = COORDINATED_UNIVERSAL_TIME_OFFSET ( 1, 0, .AHEAD. ) ;
#72 = AXIS2_PLACEMENT_3D ( 'NONE', #145, #269, #245 ) ;
#73 = CALENDAR_DATE ( 2022, 7, 7 ) ;
#74 = LOCAL_TIME ( 14, 57, 29.00000000000000000, #281 ) ;
#75 = PERSON_AND_ORGANIZATION ( #231, #69 ) ;
#76 = CARTESIAN_POINT ( 'NONE',  ( -2.000000000000000000, 0.000000000000000000, 2.000000000000000000 ) ) ;
#77 = ORIENTED_EDGE ( 'NONE', *, *, #177, .T. ) ;
#78 = AXIS2_PLACEMENT_3D ( 'NONE', #158, #255, #35 ) ;
#79 = FACE_OUTER_BOUND ( 'NONE', #307, .T. ) ;
#80 = DIRECTION ( 'NONE',  ( -0.000000000000000000, -0.000000000000000000, -1.000000000000000000 ) ) ;
#81 = DIRECTION ( 'NONE',  ( 0.000000000000000000, 0.000000000000000000, -1.000000000000000000 ) ) ;
#82 = DIRECTION ( 'NONE',  ( 1.000000000000000000, 0.000000000000000000, 0.000000000000000000 ) ) ;
#83 = CALENDAR_DATE ( 2022, 7, 7 ) ;
#84 = DIRECTION ( 'NONE',  ( 1.000000000000000000, 0.000000000000000000, -0.000000000000000000 ) ) ;
#85 = CARTESIAN_POINT ( 'NONE',  ( -1.300000000000000266, 1.592040838891559342E-16, 2.200000000000007283 ) ) ;
#86 = DIRECTION ( 'NONE',  ( 0.000000000000000000, 0.000000000000000000, 1.000000000000000000 ) ) ;
#87 = DIRECTION ( 'NONE',  ( 1.000000000000000000, 0.000000000000000000, 0.000000000000000000 ) ) ;
#88 = PRODUCT_RELATED_PRODUCT_CATEGORY ( 'detail', '', ( #17 ) ) ;
#89 = CALENDAR_DATE ( 2022, 7, 7 ) ;
#90 = CIRCLE ( 'NONE', #289, 0.2000000000000000944 ) ;
#91 = SECURITY_CLASSIFICATION_LEVEL ( 'unclassified' ) ;
#92 = VERTEX_POINT ( 'NONE', #132 ) ;
#93 = ADVANCED_FACE ( 'NONE', ( #237 ), #258, .T. ) ;
#94 = ORIENTED_EDGE ( 'NONE', *, *, #42, .T. ) ;
#95 = ORIENTED_EDGE ( 'NONE', *, *, #70, .F. ) ;
#96 = ORIENTED_EDGE ( 'NONE', *, *, #48, .T. ) ;
#97 = EDGE_CURVE ( 'NONE', #163, #52, #49, .T. ) ;
#98 = CARTESIAN_POINT ( 'NONE',  ( 2.000000000000000000, 2.449293598294706414E-16, 2.000000000000000000 ) ) ;
#99 = ORIENTED_EDGE ( 'NONE', *, *, #190, .T. ) ;
#100 = AXIS2_PLACEMENT_3D ( 'NONE', #186, #183, #259 ) ;
#101 = CARTESIAN_POINT ( 'NONE',  ( 2.000000000000000000, 2.449293598294706414E-16, 0.000000000000000000 ) ) ;
#102 = ORIENTED_EDGE ( 'NONE', *, *, #197, .T. ) ;
#103 = ORIENTED_EDGE ( 'NONE', *, *, #48, .F. ) ;
#104 = APPROVAL_STATUS ( 'not_yet_approved' ) ;
#105 = DIRECTION ( 'NONE',  ( 1.000000000000000000, 0.000000000000000000, 0.000000000000000000 ) ) ;
#106 = DIRECTION ( 'NONE',  ( 1.000000000000000000, 0.000000000000000000, 0.000000000000000000 ) ) ;
#107 = FACE_OUTER_BOUND ( 'NONE', #25, .T. ) ;
#108 = CIRCLE ( 'NONE', #141, 0.2000000000000000944 ) ;
#109 = LINE ( 'NONE', #212, #280 ) ;
#110 = DIRECTION ( 'NONE',  ( 1.000000000000000000, 0.000000000000000000, 0.000000000000000000 ) ) ;
#111 = CC_DESIGN_PERSON_AND_ORGANIZATION_ASSIGNMENT ( #75, #1, ( #128 ) ) ;
#112 = ADVANCED_FACE ( 'NONE', ( #160 ), #226, .T. ) ;
#113 = AXIS2_PLACEMENT_3D ( 'NONE', #296, #86, #105 ) ;
#114 = AXIS2_PLACEMENT_3D ( 'NONE', #253, #32, #130 ) ;
#115 = APPROVAL ( #104, 'NEURÈENÝ' ) ;
#116 = CC_DESIGN_APPROVAL ( #306, ( #128 ) ) ;
#117 = APPROVAL_ROLE ( '' ) ;
#118 = APPLICATION_CONTEXT ( 'configuration controlled 3d designs of mechanical parts and assemblies' ) ;
#119 = CARTESIAN_POINT ( 'NONE',  ( 0.000000000000000000, 0.000000000000000000, 0.000000000000000000 ) ) ;
#120 = COORDINATED_UNIVERSAL_TIME_OFFSET ( 1, 0, .AHEAD. ) ;
#121 = CC_DESIGN_DATE_AND_TIME_ASSIGNMENT ( #192, #216, ( #236 ) ) ;
#122 = DIRECTION ( 'NONE',  ( 0.000000000000000000, 0.000000000000000000, 1.000000000000000000 ) ) ;
#123 = VERTEX_POINT ( 'NONE', #10 ) ;
#124 = DIRECTION ( 'NONE',  ( 0.000000000000000000, 0.000000000000000000, 1.000000000000000000 ) ) ;
#125 = ORIENTED_EDGE ( 'NONE', *, *, #190, .F. ) ;
#126 = LINE ( 'NONE', #275, #246 ) ;
#127 = ORIENTED_EDGE ( 'NONE', *, *, #301, .F. ) ;
#128 = PRODUCT_DEFINITION_FORMATION_WITH_SPECIFIED_SOURCE ( 'LIBOVOLNÝ', '', #17, .NOT_KNOWN. ) ;
#129 = ORIENTED_EDGE ( 'NONE', *, *, #140, .F. ) ;
#130 = DIRECTION ( 'NONE',  ( 1.000000000000000000, 0.000000000000000000, 0.000000000000000000 ) ) ;
#131 = CARTESIAN_POINT ( 'NONE',  ( 0.000000000000000000, 0.000000000000000000, 2.200000000000007283 ) ) ;
#132 = CARTESIAN_POINT ( 'NONE',  ( -1.300000000000000266, 1.592040838891559342E-16, 2.000000000000003553 ) ) ;
#133 = AXIS2_PLACEMENT_3D ( 'NONE', #179, #263, #287 ) ;
#134 = AXIS2_PLACEMENT_3D ( 'NONE', #268, #38, #211 ) ;
#135 = PLANE ( 'NONE',  #100 ) ;
#136 = CARTESIAN_POINT ( 'NONE',  ( 0.000000000000000000, 0.000000000000000000, 202.0000000000000000 ) ) ;
#137 = CC_DESIGN_APPROVAL ( #115, ( #261 ) ) ;
#138 = CLOSED_SHELL ( 'NONE', ( #220, #93, #165, #112, #147, #19, #201, #243, #34 ) ) ;
#139 = APPLICATION_CONTEXT ( 'configuration controlled 3d designs of mechanical parts and assemblies' ) ;
#140 = EDGE_CURVE ( 'NONE', #59, #204, #265, .T. ) ;
#141 = AXIS2_PLACEMENT_3D ( 'NONE', #229, #203, #81 ) ;
#142 = APPROVAL_DATE_TIME ( #44, #306 ) ;
#143 = PERSON_AND_ORGANIZATION ( #231, #69 ) ;
#144 = TOROIDAL_SURFACE ( 'NONE', #133, 1.300000000000000266, 0.2000000000000000111 ) ;
#145 = CARTESIAN_POINT ( 'NONE',  ( 0.000000000000000000, 0.000000000000000000, 0.000000000000000000 ) ) ;
#146 = AXIS2_PLACEMENT_3D ( 'NONE', #119, #248, #110 ) ;
#147 = ADVANCED_FACE ( 'NONE', ( #232, #79 ), #7, .T. ) ;
#148 = ORIENTED_EDGE ( 'NONE', *, *, #188, .T. ) ;
#149 = DIRECTION ( 'NONE',  ( 1.000000000000000000, 0.000000000000000000, -0.000000000000000000 ) ) ;
#150 =( NAMED_UNIT ( * ) PLANE_ANGLE_UNIT ( ) SI_UNIT ( $, .RADIAN. ) );
#151 = DIRECTION ( 'NONE',  ( 1.000000000000000000, 0.000000000000000000, 0.000000000000000000 ) ) ;
#152 = EDGE_LOOP ( 'NONE', ( #125, #264, #53, #102 ) ) ;
#153 = DIRECTION ( 'NONE',  ( -0.000000000000000000, -0.000000000000000000, -1.000000000000000000 ) ) ;
#154 = PLANE ( 'NONE',  #242 ) ;
#155 =( GEOMETRIC_REPRESENTATION_CONTEXT ( 3 ) GLOBAL_UNCERTAINTY_ASSIGNED_CONTEXT ( ( #210 ) ) GLOBAL_UNIT_ASSIGNED_CONTEXT ( ( #298, #150, #292 ) ) REPRESENTATION_CONTEXT ( 'NONE', 'WORKASPACE' ) );
#156 = VERTEX_POINT ( 'NONE', #101 ) ;
#157 = DATE_AND_TIME ( #83, #239 ) ;
#158 = CARTESIAN_POINT ( 'NONE',  ( 0.000000000000000000, 0.000000000000000000, 202.0000000000000000 ) ) ;
#159 = APPROVAL_DATE_TIME ( #157, #115 ) ;
#160 = FACE_OUTER_BOUND ( 'NONE', #205, .T. ) ;
#161 = CIRCLE ( 'NONE', #206, 2.000000000000000000 ) ;
#162 = AXIS2_PLACEMENT_3D ( 'NONE', #178, #28, #84 ) ;
#163 = VERTEX_POINT ( 'NONE', #271 ) ;
#164 = DATE_AND_TIME ( #73, #74 ) ;
#165 = ADVANCED_FACE ( 'NONE', ( #185 ), #184, .T. ) ;
#166 = CIRCLE ( 'NONE', #72, 2.000000000000000000 ) ;
#167 = AXIS2_PLACEMENT_3D ( 'NONE', #277, #5, #250 ) ;
#168 = SHAPE_DEFINITION_REPRESENTATION ( #260, #262 ) ;
#169 = LOCAL_TIME ( 14, 57, 29.00000000000000000, #20 ) ;
#170 = CARTESIAN_POINT ( 'NONE',  ( 0.000000000000000000, 0.000000000000000000, 0.000000000000000000 ) ) ;
#171 = MANIFOLD_SOLID_BREP ( 'Zaoblit1', #138 ) ;
#172 = DIRECTION ( 'NONE',  ( 1.000000000000000000, 0.000000000000000000, 0.000000000000000000 ) ) ;
#173 = ORIENTED_EDGE ( 'NONE', *, *, #177, .F. ) ;
#174 = LOCAL_TIME ( 14, 57, 29.00000000000000000, #71 ) ;
#175 = FACE_OUTER_BOUND ( 'NONE', #200, .T. ) ;
#176 = VERTEX_POINT ( 'NONE', #208 ) ;
#177 = EDGE_CURVE ( 'NONE', #59, #156, #126, .T. ) ;
#178 = CARTESIAN_POINT ( 'NONE',  ( 0.000000000000000000, 0.000000000000000000, 2.000000000000000000 ) ) ;
#179 = CARTESIAN_POINT ( 'NONE',  ( 0.000000000000000000, 0.000000000000000000, 2.200000000000007283 ) ) ;
#180 = DIRECTION ( 'NONE',  ( 0.000000000000000000, 0.000000000000000000, 1.000000000000000000 ) ) ;
#181 = LINE ( 'NONE', #61, #193 ) ;
#182 = CARTESIAN_POINT ( 'NONE',  ( 0.000000000000000000, 0.000000000000000000, 2.200000000000007283 ) ) ;
#183 = DIRECTION ( 'NONE',  ( 0.000000000000000000, 0.000000000000000000, 1.000000000000000000 ) ) ;
#184 = CYLINDRICAL_SURFACE ( 'NONE', #218, 2.000000000000000000 ) ;
#185 = FACE_OUTER_BOUND ( 'NONE', #26, .T. ) ;
#186 = CARTESIAN_POINT ( 'NONE',  ( 0.000000000000000000, 0.000000000000000000, 202.0000000000000000 ) ) ;
#187 = AXIS2_PLACEMENT_3D ( 'NONE', #182, #124, #24 ) ;
#188 = EDGE_CURVE ( 'NONE', #286, #176, #108, .T. ) ;
#189 = CC_DESIGN_PERSON_AND_ORGANIZATION_ASSIGNMENT ( #244, #223, ( #128 ) ) ;
#190 = EDGE_CURVE ( 'NONE', #52, #286, #181, .T. ) ;
#191 = APPROVAL_STATUS ( 'not_yet_approved' ) ;
#192 = DATE_AND_TIME ( #283, #174 ) ;
#193 = VECTOR ( 'NONE', #153, 1000.000000000000000 ) ;
#194 = CC_DESIGN_PERSON_AND_ORGANIZATION_ASSIGNMENT ( #257, #37, ( #261 ) ) ;
#195 = ORIENTED_EDGE ( 'NONE', *, *, #256, .F. ) ;
#196 = ORIENTED_EDGE ( 'NONE', *, *, #13, .T. ) ;
#197 = EDGE_CURVE ( 'NONE', #123, #286, #282, .T. ) ;
#198 = CARTESIAN_POINT ( 'NONE',  ( 0.000000000000000000, 0.000000000000000000, 2.000000000000000000 ) ) ;
#199 = ORIENTED_EDGE ( 'NONE', *, *, #254, .F. ) ;
#200 = EDGE_LOOP ( 'NONE', ( #199, #221, #148, #95 ) ) ;
#201 = ADVANCED_FACE ( 'NONE', ( #65 ), #12, .T. ) ;
#202 = PERSON_AND_ORGANIZATION ( #231, #69 ) ;
#203 = DIRECTION ( 'NONE',  ( 0.000000000000000000, -1.000000000000000000, 0.000000000000000000 ) ) ;
#204 = VERTEX_POINT ( 'NONE', #234 ) ;
#205 = EDGE_LOOP ( 'NONE', ( #173, #51, #230, #96 ) ) ;
#206 = AXIS2_PLACEMENT_3D ( 'NONE', #291, #224, #82 ) ;
#207 = APPROVAL_ROLE ( '' ) ;
#208 = CARTESIAN_POINT ( 'NONE',  ( 1.300000000000000266, 0.000000000000000000, 2.000000000000003553 ) ) ;
#209 = DIRECTION ( 'NONE',  ( 1.224646799147353207E-16, 1.000000000000000000, -0.000000000000000000 ) ) ;
#210 = UNCERTAINTY_MEASURE_WITH_UNIT (LENGTH_MEASURE( 1.000000000000000082E-05 ), #298, 'distance_accuracy_value', 'NONE');
#211 = DIRECTION ( 'NONE',  ( 1.000000000000000000, 0.000000000000000000, 0.000000000000000000 ) ) ;
#212 = CARTESIAN_POINT ( 'NONE',  ( -1.100000000000000089, 0.000000000000000000, 202.0000000000000000 ) ) ;
#213 = CARTESIAN_POINT ( 'NONE',  ( 0.000000000000000000, 0.000000000000000000, 202.0000000000000000 ) ) ;
#214 = APPROVAL_PERSON_ORGANIZATION ( #284, #66, #302 ) ;
#215 = AXIS2_PLACEMENT_3D ( 'NONE', #47, #266, #172 ) ;
#216 = DATE_TIME_ROLE ( 'classification_date' ) ;
#217 = CIRCLE ( 'NONE', #187, 1.100000000000000089 ) ;
#218 = AXIS2_PLACEMENT_3D ( 'NONE', #198, #293, #57 ) ;
#219 = CALENDAR_DATE ( 2022, 7, 7 ) ;
#220 = ADVANCED_FACE ( 'NONE', ( #107 ), #16, .F. ) ;
#221 = ORIENTED_EDGE ( 'NONE', *, *, #2, .F. ) ;
#222 = ORIENTED_EDGE ( 'NONE', *, *, #140, .T. ) ;
#223 = PERSON_AND_ORGANIZATION_ROLE ( 'design_supplier' ) ;
#224 = DIRECTION ( 'NONE',  ( 0.000000000000000000, 0.000000000000000000, 1.000000000000000000 ) ) ;
#225 = ORIENTED_EDGE ( 'NONE', *, *, #42, .F. ) ;
#226 = CYLINDRICAL_SURFACE ( 'NONE', #167, 2.000000000000000000 ) ;
#227 = LINE ( 'NONE', #76, #43 ) ;
#228 = DIRECTION ( 'NONE',  ( 1.000000000000000000, 0.000000000000000000, 0.000000000000000000 ) ) ;
#229 = CARTESIAN_POINT ( 'NONE',  ( 1.300000000000000266, 0.000000000000000000, 2.200000000000007283 ) ) ;
#230 = ORIENTED_EDGE ( 'NONE', *, *, #15, .T. ) ;
#231 = PERSON ( 'NEURÈENÝ', 'NEURÈENÝ', 'NEURÈENÝ', ('NEURÈENÝ'), ('NEURÈENÝ'), ('NEURÈENÝ') ) ;
#232 = FACE_BOUND ( 'NONE', #29, .T. ) ;
#233 = DIRECTION ( 'NONE',  ( -0.000000000000000000, -0.000000000000000000, -1.000000000000000000 ) ) ;
#234 = CARTESIAN_POINT ( 'NONE',  ( -2.000000000000000000, 0.000000000000000000, 2.000000000000000000 ) ) ;
#235 = CARTESIAN_POINT ( 'NONE',  ( -2.000000000000000000, 0.000000000000000000, 0.000000000000000000 ) ) ;
#236 = SECURITY_CLASSIFICATION ( '', '', #91 ) ;
#237 = FACE_OUTER_BOUND ( 'NONE', #4, .T. ) ;
#238 = CC_DESIGN_PERSON_AND_ORGANIZATION_ASSIGNMENT ( #23, #21, ( #236 ) ) ;
#239 = LOCAL_TIME ( 14, 57, 29.00000000000000000, #295 ) ;
#240 = DATE_TIME_ROLE ( 'creation_date' ) ;
#241 = APPROVAL_DATE_TIME ( #164, #66 ) ;
#242 = AXIS2_PLACEMENT_3D ( 'NONE', #170, #122, #149 ) ;
#243 = ADVANCED_FACE ( 'NONE', ( #267 ), #135, .T. ) ;
#244 = PERSON_AND_ORGANIZATION ( #231, #69 ) ;
#245 = DIRECTION ( 'NONE',  ( 1.000000000000000000, 0.000000000000000000, 0.000000000000000000 ) ) ;
#246 = VECTOR ( 'NONE', #67, 1000.000000000000000 ) ;
#247 = EDGE_LOOP ( 'NONE', ( #50, #94 ) ) ;
#248 = DIRECTION ( 'NONE',  ( 0.000000000000000000, 0.000000000000000000, 1.000000000000000000 ) ) ;
#249 = ORIENTED_EDGE ( 'NONE', *, *, #188, .F. ) ;
#250 = DIRECTION ( 'NONE',  ( -1.000000000000000000, 0.000000000000000000, 0.000000000000000000 ) ) ;
#251 = ORIENTED_EDGE ( 'NONE', *, *, #56, .T. ) ;
#252 = CARTESIAN_POINT ( 'NONE',  ( 0.000000000000000000, 0.000000000000000000, 0.000000000000000000 ) ) ;
#253 = CARTESIAN_POINT ( 'NONE',  ( 0.000000000000000000, 0.000000000000000000, 2.200000000000007283 ) ) ;
#254 = EDGE_CURVE ( 'NONE', #123, #92, #90, .T. ) ;
#255 = DIRECTION ( 'NONE',  ( -0.000000000000000000, -0.000000000000000000, -1.000000000000000000 ) ) ;
#256 = EDGE_CURVE ( 'NONE', #176, #92, #274, .T. ) ;
#257 = PERSON_AND_ORGANIZATION ( #231, #69 ) ;
#258 = CYLINDRICAL_SURFACE ( 'NONE', #304, 1.100000000000000089 ) ;
#259 = DIRECTION ( 'NONE',  ( 1.000000000000000000, 0.000000000000000000, -0.000000000000000000 ) ) ;
#260 = PRODUCT_DEFINITION_SHAPE ( 'NONE', 'NONE',  #261 ) ;
#261 = PRODUCT_DEFINITION ( 'NEZNÁMÝ', '', #128, #270 ) ;
#262 = ADVANCED_BREP_SHAPE_REPRESENTATION ( 'bdf8', ( #171, #305 ), #155 ) ;
#263 = DIRECTION ( 'NONE',  ( 0.000000000000000000, 0.000000000000000000, 1.000000000000000000 ) ) ;
#264 = ORIENTED_EDGE ( 'NONE', *, *, #97, .F. ) ;
#265 = CIRCLE ( 'NONE', #113, 2.000000000000000000 ) ;
#266 = DIRECTION ( 'NONE',  ( 0.000000000000000000, 0.000000000000000000, 1.000000000000000000 ) ) ;
#267 = FACE_OUTER_BOUND ( 'NONE', #247, .T. ) ;
#268 = CARTESIAN_POINT ( 'NONE',  ( 0.000000000000000000, 0.000000000000000000, 2.000000000000000000 ) ) ;
#269 = DIRECTION ( 'NONE',  ( 0.000000000000000000, 0.000000000000000000, 1.000000000000000000 ) ) ;
#270 = DESIGN_CONTEXT ( 'detailed design', #139, 'design' ) ;
#271 = CARTESIAN_POINT ( 'NONE',  ( -1.100000000000000089, 0.000000000000000000, 202.0000000000000000 ) ) ;
#272 = FACE_OUTER_BOUND ( 'NONE', #8, .T. ) ;
#273 = CIRCLE ( 'NONE', #134, 1.300000000000000266 ) ;
#274 = CIRCLE ( 'NONE', #63, 1.300000000000000266 ) ;
#275 = CARTESIAN_POINT ( 'NONE',  ( 2.000000000000000000, 2.449293598294706414E-16, 2.000000000000000000 ) ) ;
#276 = APPLICATION_PROTOCOL_DEFINITION ( 'international standard', 'config_control_design', 1994, #118 ) ;
#277 = CARTESIAN_POINT ( 'NONE',  ( 0.000000000000000000, 0.000000000000000000, 2.000000000000000000 ) ) ;
#278 = CARTESIAN_POINT ( 'NONE',  ( 0.000000000000000000, 0.000000000000000000, 2.000000000000000000 ) ) ;
#279 = CIRCLE ( 'NONE', #146, 2.000000000000000000 ) ;
#280 = VECTOR ( 'NONE', #233, 1000.000000000000000 ) ;
#281 = COORDINATED_UNIVERSAL_TIME_OFFSET ( 1, 0, .AHEAD. ) ;
#282 = CIRCLE ( 'NONE', #114, 1.100000000000000089 ) ;
#283 = CALENDAR_DATE ( 2022, 7, 7 ) ;
#284 = PERSON_AND_ORGANIZATION ( #231, #69 ) ;
#285 = ORIENTED_EDGE ( 'NONE', *, *, #15, .F. ) ;
#286 = VERTEX_POINT ( 'NONE', #64 ) ;
#287 = DIRECTION ( 'NONE',  ( 1.000000000000000000, 0.000000000000000000, 0.000000000000000000 ) ) ;
#288 = ORIENTED_EDGE ( 'NONE', *, *, #70, .T. ) ;
#289 = AXIS2_PLACEMENT_3D ( 'NONE', #85, #209, #54 ) ;
#290 = DIRECTION ( 'NONE',  ( -1.000000000000000000, 0.000000000000000000, 0.000000000000000000 ) ) ;
#291 = CARTESIAN_POINT ( 'NONE',  ( 0.000000000000000000, 0.000000000000000000, 2.000000000000000000 ) ) ;
#292 =( NAMED_UNIT ( * ) SI_UNIT ( $, .STERADIAN. ) SOLID_ANGLE_UNIT ( ) );
#293 = DIRECTION ( 'NONE',  ( -0.000000000000000000, -0.000000000000000000, -1.000000000000000000 ) ) ;
#294 = VERTEX_POINT ( 'NONE', #235 ) ;
#295 = COORDINATED_UNIVERSAL_TIME_OFFSET ( 1, 0, .AHEAD. ) ;
#296 = CARTESIAN_POINT ( 'NONE',  ( 0.000000000000000000, 0.000000000000000000, 2.000000000000000000 ) ) ;
#297 = AXIS2_PLACEMENT_3D ( 'NONE', #213, #299, #151 ) ;
#298 =( LENGTH_UNIT ( ) NAMED_UNIT ( * ) SI_UNIT ( .MILLI., .METRE. ) );
#299 = DIRECTION ( 'NONE',  ( 0.000000000000000000, 0.000000000000000000, 1.000000000000000000 ) ) ;
#300 = APPROVAL_PERSON_ORGANIZATION ( #143, #306, #117 ) ;
#301 = EDGE_CURVE ( 'NONE', #163, #123, #109, .T. ) ;
#302 = APPROVAL_ROLE ( '' ) ;
#303 = APPROVAL_STATUS ( 'not_yet_approved' ) ;
#304 = AXIS2_PLACEMENT_3D ( 'NONE', #136, #14, #290 ) ;
#305 = AXIS2_PLACEMENT_3D ( 'NONE', #252, #31, #106 ) ;
#306 = APPROVAL ( #191, 'NEURÈENÝ' ) ;
#307 = EDGE_LOOP ( 'NONE', ( #196, #222 ) ) ;
ENDSEC;
END-ISO-10303-21;
