ISO-10303-21;
HEADER;
FILE_DESCRIPTION (( 'STEP AP203' ),
    '1' );
FILE_NAME ('95a6.STEP',
    '2023-02-12T11:39:56',
    ( '' ),
    ( '' ),
    'SwSTEP 2.0',
    'SolidWorks 2019',
    '' );
FILE_SCHEMA (( 'CONFIG_CONTROL_DESIGN' ));
ENDSEC;

DATA;
#1 = CARTESIAN_POINT ( 'NONE',  ( 0.000000000000000000, 0.000000000000000000, 5.000000000000000000 ) ) ;
#2 = DIRECTION ( 'NONE',  ( -0.000000000000000000, -0.000000000000000000, -1.000000000000000000 ) ) ;
#3 = CIRCLE ( 'NONE', #161, 3.000000000000000444 ) ;
#4 = DIRECTION ( 'NONE',  ( 1.000000000000000000, 0.000000000000000000, -0.000000000000000000 ) ) ;
#5 = AXIS2_PLACEMENT_3D ( 'NONE', #102, #186, #82 ) ;
#6 = DATE_TIME_ROLE ( 'classification_date' ) ;
#7 = ADVANCED_FACE ( 'NONE', ( #56 ), #71, .T. ) ;
#8 = PERSON_AND_ORGANIZATION ( #148, #135 ) ;
#9 = PERSON_AND_ORGANIZATION_ROLE ( 'design_supplier' ) ;
#10 = ORIENTED_EDGE ( 'NONE', *, *, #193, .T. ) ;
#11 = LOCAL_TIME ( 12, 39, 56.00000000000000000, #107 ) ;
#12 = ORIENTED_EDGE ( 'NONE', *, *, #201, .F. ) ;
#13 = CC_DESIGN_DATE_AND_TIME_ASSIGNMENT ( #122, #6, ( #16 ) ) ;
#14 = DIRECTION ( 'NONE',  ( -0.000000000000000000, -0.000000000000000000, -1.000000000000000000 ) ) ;
#15 = CARTESIAN_POINT ( 'NONE',  ( 0.000000000000000000, 0.000000000000000000, 5.000000000000000000 ) ) ;
#16 = SECURITY_CLASSIFICATION ( '', '', #244 ) ;
#17 = EDGE_CURVE ( 'NONE', #151, #215, #68, .T. ) ;
#18 = CYLINDRICAL_SURFACE ( 'NONE', #172, 6.000000000000000888 ) ;
#19 = CARTESIAN_POINT ( 'NONE',  ( -6.000000000000000888, 0.000000000000000000, 0.000000000000000000 ) ) ;
#20 = ORIENTED_EDGE ( 'NONE', *, *, #42, .F. ) ;
#21 = UNCERTAINTY_MEASURE_WITH_UNIT (LENGTH_MEASURE( 1.000000000000000082E-05 ), #79, 'distance_accuracy_value', 'NONE');
#22 = PLANE ( 'NONE',  #53 ) ;
#23 = DIRECTION ( 'NONE',  ( 0.000000000000000000, 0.000000000000000000, 1.000000000000000000 ) ) ;
#24 = DIRECTION ( 'NONE',  ( -0.000000000000000000, -0.000000000000000000, -1.000000000000000000 ) ) ;
#25 = CC_DESIGN_PERSON_AND_ORGANIZATION_ASSIGNMENT ( #84, #241, ( #210 ) ) ;
#26 = CARTESIAN_POINT ( 'NONE',  ( -6.000000000000000888, 0.000000000000000000, 5.000000000000000000 ) ) ;
#27 = CC_DESIGN_APPROVAL ( #213, ( #203 ) ) ;
#28 = EDGE_LOOP ( 'NONE', ( #52, #229, #10, #20 ) ) ;
#29 = PERSON_AND_ORGANIZATION ( #148, #135 ) ;
#30 = CC_DESIGN_DATE_AND_TIME_ASSIGNMENT ( #214, #167, ( #154 ) ) ;
#31 = ORIENTED_EDGE ( 'NONE', *, *, #57, .T. ) ;
#32 = VERTEX_POINT ( 'NONE', #77 ) ;
#33 = FACE_OUTER_BOUND ( 'NONE', #54, .T. ) ;
#34 = LINE ( 'NONE', #98, #134 ) ;
#35 = DIRECTION ( 'NONE',  ( 1.000000000000000000, 0.000000000000000000, 0.000000000000000000 ) ) ;
#36 = AXIS2_PLACEMENT_3D ( 'NONE', #221, #60, #158 ) ;
#37 = CARTESIAN_POINT ( 'NONE',  ( 0.000000000000000000, 0.000000000000000000, 5.000000000000000000 ) ) ;
#38 = CARTESIAN_POINT ( 'NONE',  ( 0.000000000000000000, 0.000000000000000000, 5.000000000000000000 ) ) ;
#39 = DIRECTION ( 'NONE',  ( 0.000000000000000000, 0.000000000000000000, 1.000000000000000000 ) ) ;
#40 = AXIS2_PLACEMENT_3D ( 'NONE', #218, #222, #220 ) ;
#41 = AXIS2_PLACEMENT_3D ( 'NONE', #38, #231, #75 ) ;
#42 = EDGE_CURVE ( 'NONE', #32, #157, #137, .T. ) ;
#43 = COORDINATED_UNIVERSAL_TIME_OFFSET ( 1, 0, .AHEAD. ) ;
#44 = DIRECTION ( 'NONE',  ( 1.000000000000000000, 0.000000000000000000, -0.000000000000000000 ) ) ;
#45 = APPROVAL_PERSON_ORGANIZATION ( #189, #116, #243 ) ;
#46 = APPROVAL_DATE_TIME ( #190, #213 ) ;
#47 = CIRCLE ( 'NONE', #55, 6.000000000000000888 ) ;
#48 = ORIENTED_EDGE ( 'NONE', *, *, #132, .F. ) ;
#49 = CIRCLE ( 'NONE', #5, 3.000000000000000444 ) ;
#50 = PERSON_AND_ORGANIZATION ( #148, #135 ) ;
#51 = ORIENTED_EDGE ( 'NONE', *, *, #42, .T. ) ;
#52 = ORIENTED_EDGE ( 'NONE', *, *, #57, .F. ) ;
#53 = AXIS2_PLACEMENT_3D ( 'NONE', #226, #23, #44 ) ;
#54 = EDGE_LOOP ( 'NONE', ( #236, #12, #108, #110 ) ) ;
#55 = AXIS2_PLACEMENT_3D ( 'NONE', #253, #95, #251 ) ;
#56 = FACE_OUTER_BOUND ( 'NONE', #28, .T. ) ;
#57 = EDGE_CURVE ( 'NONE', #70, #32, #3, .T. ) ;
#58 = LINE ( 'NONE', #74, #156 ) ;
#59 = ORIENTED_EDGE ( 'NONE', *, *, #67, .T. ) ;
#60 = DIRECTION ( 'NONE',  ( 0.000000000000000000, 0.000000000000000000, 1.000000000000000000 ) ) ;
#61 = DIRECTION ( 'NONE',  ( -1.000000000000000000, 0.000000000000000000, 0.000000000000000000 ) ) ;
#62 = DATE_AND_TIME ( #240, #219 ) ;
#63 = PERSON_AND_ORGANIZATION ( #148, #135 ) ;
#64 = COORDINATED_UNIVERSAL_TIME_OFFSET ( 1, 0, .AHEAD. ) ;
#65 = SHAPE_DEFINITION_REPRESENTATION ( #124, #66 ) ;
#66 = ADVANCED_BREP_SHAPE_REPRESENTATION ( '95a6', ( #248, #96 ), #246 ) ;
#67 = EDGE_CURVE ( 'NONE', #200, #170, #224, .T. ) ;
#68 = CIRCLE ( 'NONE', #36, 6.000000000000000888 ) ;
#69 = PERSON_AND_ORGANIZATION ( #148, #135 ) ;
#70 = VERTEX_POINT ( 'NONE', #99 ) ;
#71 = CYLINDRICAL_SURFACE ( 'NONE', #155, 3.000000000000000444 ) ;
#72 = PRODUCT_RELATED_PRODUCT_CATEGORY ( 'detail', '', ( #210 ) ) ;
#73 = DIRECTION ( 'NONE',  ( 0.000000000000000000, 0.000000000000000000, 1.000000000000000000 ) ) ;
#74 = CARTESIAN_POINT ( 'NONE',  ( 6.000000000000000888, 7.347880794884120722E-16, 5.000000000000000000 ) ) ;
#75 = DIRECTION ( 'NONE',  ( 1.000000000000000000, 0.000000000000000000, 0.000000000000000000 ) ) ;
#76 = AXIS2_PLACEMENT_3D ( 'NONE', #237, #2, #61 ) ;
#77 = CARTESIAN_POINT ( 'NONE',  ( -3.000000000000000444, 0.000000000000000000, 315.0000000000000000 ) ) ;
#78 = DESIGN_CONTEXT ( 'detailed design', #187, 'design' ) ;
#79 =( LENGTH_UNIT ( ) NAMED_UNIT ( * ) SI_UNIT ( .MILLI., .METRE. ) );
#80 = DIRECTION ( 'NONE',  ( 0.000000000000000000, 0.000000000000000000, 1.000000000000000000 ) ) ;
#81 = AXIS2_PLACEMENT_3D ( 'NONE', #1, #80, #239 ) ;
#82 = DIRECTION ( 'NONE',  ( 1.000000000000000000, 0.000000000000000000, 0.000000000000000000 ) ) ;
#83 = ADVANCED_FACE ( 'NONE', ( #33 ), #178, .T. ) ;
#84 = PERSON_AND_ORGANIZATION ( #148, #135 ) ;
#85 = FACE_OUTER_BOUND ( 'NONE', #93, .T. ) ;
#86 = CC_DESIGN_PERSON_AND_ORGANIZATION_ASSIGNMENT ( #29, #9, ( #203 ) ) ;
#87 = APPROVAL_ROLE ( '' ) ;
#88 = CC_DESIGN_SECURITY_CLASSIFICATION ( #16, ( #203 ) ) ;
#89 = PERSON_AND_ORGANIZATION ( #148, #135 ) ;
#90 = CC_DESIGN_PERSON_AND_ORGANIZATION_ASSIGNMENT ( #50, #175, ( #154 ) ) ;
#91 = APPROVAL_STATUS ( 'not_yet_approved' ) ;
#92 = ORIENTED_EDGE ( 'NONE', *, *, #201, .T. ) ;
#93 = EDGE_LOOP ( 'NONE', ( #153, #109 ) ) ;
#94 = ORIENTED_EDGE ( 'NONE', *, *, #126, .T. ) ;
#95 = DIRECTION ( 'NONE',  ( 0.000000000000000000, 0.000000000000000000, 1.000000000000000000 ) ) ;
#96 = AXIS2_PLACEMENT_3D ( 'NONE', #103, #39, #225 ) ;
#97 = ORIENTED_EDGE ( 'NONE', *, *, #121, .T. ) ;
#98 = CARTESIAN_POINT ( 'NONE',  ( -6.000000000000000888, 0.000000000000000000, 5.000000000000000000 ) ) ;
#99 = CARTESIAN_POINT ( 'NONE',  ( 3.000000000000000444, 3.673940397442060361E-16, 315.0000000000000000 ) ) ;
#100 = AXIS2_PLACEMENT_3D ( 'NONE', #15, #14, #112 ) ;
#101 = DIRECTION ( 'NONE',  ( -1.000000000000000000, 0.000000000000000000, 0.000000000000000000 ) ) ;
#102 = CARTESIAN_POINT ( 'NONE',  ( 0.000000000000000000, 0.000000000000000000, 5.000000000000000000 ) ) ;
#103 = CARTESIAN_POINT ( 'NONE',  ( 0.000000000000000000, 0.000000000000000000, 0.000000000000000000 ) ) ;
#104 = APPLICATION_PROTOCOL_DEFINITION ( 'international standard', 'config_control_design', 1994, #125 ) ;
#105 = CC_DESIGN_PERSON_AND_ORGANIZATION_ASSIGNMENT ( #69, #123, ( #16 ) ) ;
#106 = PERSON_AND_ORGANIZATION_ROLE ( 'creator' ) ;
#107 = COORDINATED_UNIVERSAL_TIME_OFFSET ( 1, 0, .AHEAD. ) ;
#108 = ORIENTED_EDGE ( 'NONE', *, *, #147, .T. ) ;
#109 = ORIENTED_EDGE ( 'NONE', *, *, #121, .F. ) ;
#110 = ORIENTED_EDGE ( 'NONE', *, *, #17, .T. ) ;
#111 = EDGE_LOOP ( 'NONE', ( #160, #129, #51, #176 ) ) ;
#112 = DIRECTION ( 'NONE',  ( -1.000000000000000000, 0.000000000000000000, 0.000000000000000000 ) ) ;
#113 = DIRECTION ( 'NONE',  ( -0.000000000000000000, -0.000000000000000000, -1.000000000000000000 ) ) ;
#114 = ORIENTED_EDGE ( 'NONE', *, *, #67, .F. ) ;
#115 = DIRECTION ( 'NONE',  ( -0.000000000000000000, -0.000000000000000000, -1.000000000000000000 ) ) ;
#116 = APPROVAL ( #91, 'NEURÈENÝ' ) ;
#117 = AXIS2_PLACEMENT_3D ( 'NONE', #180, #73, #233 ) ;
#118 = APPROVAL_DATE_TIME ( #62, #149 ) ;
#119 = CARTESIAN_POINT ( 'NONE',  ( 3.000000000000000444, 3.673940397442060361E-16, 315.0000000000000000 ) ) ;
#120 = CC_DESIGN_APPROVAL ( #149, ( #154 ) ) ;
#121 = EDGE_CURVE ( 'NONE', #215, #151, #47, .T. ) ;
#122 = DATE_AND_TIME ( #171, #11 ) ;
#123 = PERSON_AND_ORGANIZATION_ROLE ( 'classification_officer' ) ;
#124 = PRODUCT_DEFINITION_SHAPE ( 'NONE', 'NONE',  #154 ) ;
#125 = APPLICATION_CONTEXT ( 'configuration controlled 3d designs of mechanical parts and assemblies' ) ;
#126 = EDGE_CURVE ( 'NONE', #32, #70, #232, .T. ) ;
#127 = APPROVAL_STATUS ( 'not_yet_approved' ) ;
#128 = EDGE_CURVE ( 'NONE', #200, #215, #58, .T. ) ;
#129 = ORIENTED_EDGE ( 'NONE', *, *, #126, .F. ) ;
#130 = DIRECTION ( 'NONE',  ( 1.000000000000000000, 0.000000000000000000, 0.000000000000000000 ) ) ;
#131 = PLANE ( 'NONE',  #40 ) ;
#132 = EDGE_CURVE ( 'NONE', #157, #195, #252, .T. ) ;
#133 = FACE_BOUND ( 'NONE', #216, .T. ) ;
#134 = VECTOR ( 'NONE', #113, 1000.000000000000000 ) ;
#135 = ORGANIZATION ( 'NEURÈENÝ', 'NEURÈENÝ', '' ) ;
#136 = FACE_OUTER_BOUND ( 'NONE', #191, .T. ) ;
#137 = LINE ( 'NONE', #196, #249 ) ;
#138 = ADVANCED_FACE ( 'NONE', ( #133, #136 ), #131, .T. ) ;
#139 = CC_DESIGN_APPROVAL ( #116, ( #16 ) ) ;
#140 = CARTESIAN_POINT ( 'NONE',  ( 0.000000000000000000, 0.000000000000000000, 315.0000000000000000 ) ) ;
#141 = AXIS2_PLACEMENT_3D ( 'NONE', #230, #254, #130 ) ;
#142 =( NAMED_UNIT ( * ) PLANE_ANGLE_UNIT ( ) SI_UNIT ( $, .RADIAN. ) );
#143 = CARTESIAN_POINT ( 'NONE',  ( 3.000000000000000444, 3.673940397442060361E-16, 5.000000000000000000 ) ) ;
#144 = CALENDAR_DATE ( 2023, 12, 2 ) ;
#145 = CLOSED_SHELL ( 'NONE', ( #7, #168, #83, #138, #217, #183, #185 ) ) ;
#146 = ORIENTED_EDGE ( 'NONE', *, *, #193, .F. ) ;
#147 = EDGE_CURVE ( 'NONE', #170, #151, #34, .T. ) ;
#148 = PERSON ( 'NEURÈENÝ', 'NEURÈENÝ', 'NEURÈENÝ', ('NEURÈENÝ'), ('NEURÈENÝ'), ('NEURÈENÝ') ) ;
#149 = APPROVAL ( #204, 'NEURÈENÝ' ) ;
#150 = CALENDAR_DATE ( 2023, 12, 2 ) ;
#151 = VERTEX_POINT ( 'NONE', #19 ) ;
#152 = DIRECTION ( 'NONE',  ( 0.000000000000000000, 0.000000000000000000, 1.000000000000000000 ) ) ;
#153 = ORIENTED_EDGE ( 'NONE', *, *, #17, .F. ) ;
#154 = PRODUCT_DEFINITION ( 'NEZNÁMÝ', '', #203, #78 ) ;
#155 = AXIS2_PLACEMENT_3D ( 'NONE', #255, #199, #197 ) ;
#156 = VECTOR ( 'NONE', #182, 1000.000000000000000 ) ;
#157 = VERTEX_POINT ( 'NONE', #198 ) ;
#158 = DIRECTION ( 'NONE',  ( 1.000000000000000000, 0.000000000000000000, 0.000000000000000000 ) ) ;
#159 = LOCAL_TIME ( 12, 39, 56.00000000000000000, #192 ) ;
#160 = ORIENTED_EDGE ( 'NONE', *, *, #179, .F. ) ;
#161 = AXIS2_PLACEMENT_3D ( 'NONE', #177, #152, #35 ) ;
#162 =( NAMED_UNIT ( * ) SI_UNIT ( $, .STERADIAN. ) SOLID_ANGLE_UNIT ( ) );
#163 = FACE_OUTER_BOUND ( 'NONE', #245, .T. ) ;
#164 = CC_DESIGN_PERSON_AND_ORGANIZATION_ASSIGNMENT ( #8, #106, ( #203 ) ) ;
#165 = APPLICATION_PROTOCOL_DEFINITION ( 'international standard', 'config_control_design', 1994, #187 ) ;
#166 = MECHANICAL_CONTEXT ( 'NONE', #125, 'mechanical' ) ;
#167 = DATE_TIME_ROLE ( 'creation_date' ) ;
#168 = ADVANCED_FACE ( 'NONE', ( #181 ), #18, .T. ) ;
#169 = DATE_AND_TIME ( #144, #173 ) ;
#170 = VERTEX_POINT ( 'NONE', #26 ) ;
#171 = CALENDAR_DATE ( 2023, 12, 2 ) ;
#172 = AXIS2_PLACEMENT_3D ( 'NONE', #37, #115, #101 ) ;
#173 = LOCAL_TIME ( 12, 39, 56.00000000000000000, #64 ) ;
#174 = EDGE_LOOP ( 'NONE', ( #114, #228, #97, #212 ) ) ;
#175 = PERSON_AND_ORGANIZATION_ROLE ( 'creator' ) ;
#176 = ORIENTED_EDGE ( 'NONE', *, *, #132, .T. ) ;
#177 = CARTESIAN_POINT ( 'NONE',  ( 0.000000000000000000, 0.000000000000000000, 315.0000000000000000 ) ) ;
#178 = CYLINDRICAL_SURFACE ( 'NONE', #100, 6.000000000000000888 ) ;
#179 = EDGE_CURVE ( 'NONE', #70, #195, #205, .T. ) ;
#180 = CARTESIAN_POINT ( 'NONE',  ( 0.000000000000000000, 0.000000000000000000, 315.0000000000000000 ) ) ;
#181 = FACE_OUTER_BOUND ( 'NONE', #174, .T. ) ;
#182 = DIRECTION ( 'NONE',  ( -0.000000000000000000, -0.000000000000000000, -1.000000000000000000 ) ) ;
#183 = ADVANCED_FACE ( 'NONE', ( #188 ), #227, .T. ) ;
#184 = CARTESIAN_POINT ( 'NONE',  ( 6.000000000000000888, 7.347880794884120722E-16, 0.000000000000000000 ) ) ;
#185 = ADVANCED_FACE ( 'NONE', ( #163 ), #202, .T. ) ;
#186 = DIRECTION ( 'NONE',  ( 0.000000000000000000, 0.000000000000000000, 1.000000000000000000 ) ) ;
#187 = APPLICATION_CONTEXT ( 'configuration controlled 3d designs of mechanical parts and assemblies' ) ;
#188 = FACE_OUTER_BOUND ( 'NONE', #111, .T. ) ;
#189 = PERSON_AND_ORGANIZATION ( #148, #135 ) ;
#190 = DATE_AND_TIME ( #247, #159 ) ;
#191 = EDGE_LOOP ( 'NONE', ( #92, #59 ) ) ;
#192 = COORDINATED_UNIVERSAL_TIME_OFFSET ( 1, 0, .AHEAD. ) ;
#193 = EDGE_CURVE ( 'NONE', #195, #157, #49, .T. ) ;
#194 = APPROVAL_PERSON_ORGANIZATION ( #63, #149, #206 ) ;
#195 = VERTEX_POINT ( 'NONE', #143 ) ;
#196 = CARTESIAN_POINT ( 'NONE',  ( -3.000000000000000444, 0.000000000000000000, 315.0000000000000000 ) ) ;
#197 = DIRECTION ( 'NONE',  ( -1.000000000000000000, 0.000000000000000000, 0.000000000000000000 ) ) ;
#198 = CARTESIAN_POINT ( 'NONE',  ( -3.000000000000000444, 0.000000000000000000, 5.000000000000000000 ) ) ;
#199 = DIRECTION ( 'NONE',  ( -0.000000000000000000, -0.000000000000000000, -1.000000000000000000 ) ) ;
#200 = VERTEX_POINT ( 'NONE', #223 ) ;
#201 = EDGE_CURVE ( 'NONE', #170, #200, #211, .T. ) ;
#202 = PLANE ( 'NONE',  #234 ) ;
#203 = PRODUCT_DEFINITION_FORMATION_WITH_SPECIFIED_SOURCE ( 'LIBOVOLNÝ', '', #210, .NOT_KNOWN. ) ;
#204 = APPROVAL_STATUS ( 'not_yet_approved' ) ;
#205 = LINE ( 'NONE', #119, #207 ) ;
#206 = APPROVAL_ROLE ( '' ) ;
#207 = VECTOR ( 'NONE', #24, 1000.000000000000000 ) ;
#208 = LOCAL_TIME ( 12, 39, 56.00000000000000000, #250 ) ;
#209 = APPROVAL_DATE_TIME ( #169, #116 ) ;
#210 = PRODUCT ( '95a6', '95a6', '', ( #166 ) ) ;
#211 = CIRCLE ( 'NONE', #81, 6.000000000000000888 ) ;
#212 = ORIENTED_EDGE ( 'NONE', *, *, #147, .F. ) ;
#213 = APPROVAL ( #127, 'NEURÈENÝ' ) ;
#214 = DATE_AND_TIME ( #150, #208 ) ;
#215 = VERTEX_POINT ( 'NONE', #184 ) ;
#216 = EDGE_LOOP ( 'NONE', ( #48, #146 ) ) ;
#217 = ADVANCED_FACE ( 'NONE', ( #85 ), #22, .F. ) ;
#218 = CARTESIAN_POINT ( 'NONE',  ( 0.000000000000000000, 0.000000000000000000, 5.000000000000000000 ) ) ;
#219 = LOCAL_TIME ( 12, 39, 56.00000000000000000, #43 ) ;
#220 = DIRECTION ( 'NONE',  ( 1.000000000000000000, 0.000000000000000000, -0.000000000000000000 ) ) ;
#221 = CARTESIAN_POINT ( 'NONE',  ( 0.000000000000000000, 0.000000000000000000, 0.000000000000000000 ) ) ;
#222 = DIRECTION ( 'NONE',  ( 0.000000000000000000, 0.000000000000000000, 1.000000000000000000 ) ) ;
#223 = CARTESIAN_POINT ( 'NONE',  ( 6.000000000000000888, 7.347880794884120722E-16, 5.000000000000000000 ) ) ;
#224 = CIRCLE ( 'NONE', #141, 6.000000000000000888 ) ;
#225 = DIRECTION ( 'NONE',  ( 1.000000000000000000, 0.000000000000000000, 0.000000000000000000 ) ) ;
#226 = CARTESIAN_POINT ( 'NONE',  ( 0.000000000000000000, 0.000000000000000000, 0.000000000000000000 ) ) ;
#227 = CYLINDRICAL_SURFACE ( 'NONE', #76, 3.000000000000000444 ) ;
#228 = ORIENTED_EDGE ( 'NONE', *, *, #128, .T. ) ;
#229 = ORIENTED_EDGE ( 'NONE', *, *, #179, .T. ) ;
#230 = CARTESIAN_POINT ( 'NONE',  ( 0.000000000000000000, 0.000000000000000000, 5.000000000000000000 ) ) ;
#231 = DIRECTION ( 'NONE',  ( 0.000000000000000000, 0.000000000000000000, 1.000000000000000000 ) ) ;
#232 = CIRCLE ( 'NONE', #117, 3.000000000000000444 ) ;
#233 = DIRECTION ( 'NONE',  ( 1.000000000000000000, 0.000000000000000000, 0.000000000000000000 ) ) ;
#234 = AXIS2_PLACEMENT_3D ( 'NONE', #140, #238, #4 ) ;
#235 = DIRECTION ( 'NONE',  ( -0.000000000000000000, -0.000000000000000000, -1.000000000000000000 ) ) ;
#236 = ORIENTED_EDGE ( 'NONE', *, *, #128, .F. ) ;
#237 = CARTESIAN_POINT ( 'NONE',  ( 0.000000000000000000, 0.000000000000000000, 315.0000000000000000 ) ) ;
#238 = DIRECTION ( 'NONE',  ( 0.000000000000000000, 0.000000000000000000, 1.000000000000000000 ) ) ;
#239 = DIRECTION ( 'NONE',  ( 1.000000000000000000, 0.000000000000000000, 0.000000000000000000 ) ) ;
#240 = CALENDAR_DATE ( 2023, 12, 2 ) ;
#241 = PERSON_AND_ORGANIZATION_ROLE ( 'design_owner' ) ;
#242 = APPROVAL_PERSON_ORGANIZATION ( #89, #213, #87 ) ;
#243 = APPROVAL_ROLE ( '' ) ;
#244 = SECURITY_CLASSIFICATION_LEVEL ( 'unclassified' ) ;
#245 = EDGE_LOOP ( 'NONE', ( #94, #31 ) ) ;
#246 =( GEOMETRIC_REPRESENTATION_CONTEXT ( 3 ) GLOBAL_UNCERTAINTY_ASSIGNED_CONTEXT ( ( #21 ) ) GLOBAL_UNIT_ASSIGNED_CONTEXT ( ( #79, #142, #162 ) ) REPRESENTATION_CONTEXT ( 'NONE', 'WORKASPACE' ) );
#247 = CALENDAR_DATE ( 2023, 12, 2 ) ;
#248 = MANIFOLD_SOLID_BREP ( 'Pøidat vysunutím3', #145 ) ;
#249 = VECTOR ( 'NONE', #235, 1000.000000000000000 ) ;
#250 = COORDINATED_UNIVERSAL_TIME_OFFSET ( 1, 0, .AHEAD. ) ;
#251 = DIRECTION ( 'NONE',  ( 1.000000000000000000, 0.000000000000000000, 0.000000000000000000 ) ) ;
#252 = CIRCLE ( 'NONE', #41, 3.000000000000000444 ) ;
#253 = CARTESIAN_POINT ( 'NONE',  ( 0.000000000000000000, 0.000000000000000000, 0.000000000000000000 ) ) ;
#254 = DIRECTION ( 'NONE',  ( 0.000000000000000000, 0.000000000000000000, 1.000000000000000000 ) ) ;
#255 = CARTESIAN_POINT ( 'NONE',  ( 0.000000000000000000, 0.000000000000000000, 315.0000000000000000 ) ) ;
ENDSEC;
END-ISO-10303-21;
