ISO-10303-21;
HEADER;
FILE_DESCRIPTION (( 'STEP AP203' ),
    '1' );
FILE_NAME ('ec8d.STEP',
    '2022-07-07T12:33:48',
    ( '' ),
    ( '' ),
    'SwSTEP 2.0',
    'SolidWorks 2019',
    '' );
FILE_SCHEMA (( 'CONFIG_CONTROL_DESIGN' ));
ENDSEC;

DATA;
#1 = AXIS2_PLACEMENT_3D ( 'NONE', #19, #179, #196 ) ;
#2 = CARTESIAN_POINT ( 'NONE',  ( -4.000000000000000000, 0.000000000000000000, 505.0000000000000000 ) ) ;
#3 = DIRECTION ( 'NONE',  ( -1.000000000000000000, 0.000000000000000000, 0.000000000000000000 ) ) ;
#4 = CIRCLE ( 'NONE', #255, 0.1999999999999996503 ) ;
#5 = EDGE_LOOP ( 'NONE', ( #43, #163, #207, #65 ) ) ;
#6 = CYLINDRICAL_SURFACE ( 'NONE', #131, 7.000000000000000000 ) ;
#7 = VERTEX_POINT ( 'NONE', #265 ) ;
#8 = DIRECTION ( 'NONE',  ( 1.000000000000000000, 0.000000000000000000, 0.000000000000000000 ) ) ;
#9 = DIRECTION ( 'NONE',  ( 0.000000000000000000, 0.000000000000000000, 1.000000000000000000 ) ) ;
#10 = EDGE_LOOP ( 'NONE', ( #74, #193, #233, #91 ) ) ;
#11 = CALENDAR_DATE ( 2022, 7, 7 ) ;
#12 = CARTESIAN_POINT ( 'NONE',  ( 0.000000000000000000, 0.000000000000000000, 5.199999999999982414 ) ) ;
#13 = EDGE_CURVE ( 'NONE', #26, #118, #169, .T. ) ;
#14 = PLANE ( 'NONE',  #85 ) ;
#15 = DATE_AND_TIME ( #11, #53 ) ;
#16 =( NAMED_UNIT ( * ) PLANE_ANGLE_UNIT ( ) SI_UNIT ( $, .RADIAN. ) );
#17 = DIRECTION ( 'NONE',  ( 1.000000000000000000, 0.000000000000000000, -0.000000000000000000 ) ) ;
#18 = SHAPE_DEFINITION_REPRESENTATION ( #137, #34 ) ;
#19 = CARTESIAN_POINT ( 'NONE',  ( 0.000000000000000000, 0.000000000000000000, 5.000000000000000000 ) ) ;
#20 = ORIENTED_EDGE ( 'NONE', *, *, #284, .F. ) ;
#21 = APPROVAL_PERSON_ORGANIZATION ( #182, #294, #156 ) ;
#22 = VERTEX_POINT ( 'NONE', #51 ) ;
#23 = DIRECTION ( 'NONE',  ( 0.000000000000000000, 0.000000000000000000, 1.000000000000000000 ) ) ;
#24 = LINE ( 'NONE', #120, #203 ) ;
#25 = AXIS2_PLACEMENT_3D ( 'NONE', #204, #304, #135 ) ;
#26 = VERTEX_POINT ( 'NONE', #242 ) ;
#27 = CARTESIAN_POINT ( 'NONE',  ( 0.000000000000000000, 0.000000000000000000, 505.0000000000000000 ) ) ;
#28 = ADVANCED_FACE ( 'NONE', ( #123 ), #130, .F. ) ;
#29 = CC_DESIGN_APPROVAL ( #247, ( #293 ) ) ;
#30 = ORIENTED_EDGE ( 'NONE', *, *, #180, .F. ) ;
#31 = CARTESIAN_POINT ( 'NONE',  ( 0.000000000000000000, 0.000000000000000000, 0.000000000000000000 ) ) ;
#32 = DATE_AND_TIME ( #139, #69 ) ;
#33 = AXIS2_PLACEMENT_3D ( 'NONE', #66, #38, #3 ) ;
#34 = ADVANCED_BREP_SHAPE_REPRESENTATION ( 'ec8d', ( #275, #80 ), #178 ) ;
#35 = EDGE_CURVE ( 'NONE', #129, #22, #117, .T. ) ;
#36 = CALENDAR_DATE ( 2022, 7, 7 ) ;
#37 = EDGE_CURVE ( 'NONE', #142, #26, #272, .T. ) ;
#38 = DIRECTION ( 'NONE',  ( -0.000000000000000000, -0.000000000000000000, -1.000000000000000000 ) ) ;
#39 = APPROVAL_DATE_TIME ( #15, #294 ) ;
#40 = DIRECTION ( 'NONE',  ( 0.000000000000000000, 0.000000000000000000, 1.000000000000000000 ) ) ;
#41 = COORDINATED_UNIVERSAL_TIME_OFFSET ( 1, 0, .AHEAD. ) ;
#42 = ORIENTED_EDGE ( 'NONE', *, *, #150, .F. ) ;
#43 = ORIENTED_EDGE ( 'NONE', *, *, #154, .F. ) ;
#44 = DIRECTION ( 'NONE',  ( 1.000000000000000000, 0.000000000000000000, -0.000000000000000000 ) ) ;
#45 = VECTOR ( 'NONE', #146, 1000.000000000000000 ) ;
#46 = FACE_OUTER_BOUND ( 'NONE', #305, .T. ) ;
#47 = CC_DESIGN_PERSON_AND_ORGANIZATION_ASSIGNMENT ( #157, #271, ( #293 ) ) ;
#48 = APPLICATION_CONTEXT ( 'configuration controlled 3d designs of mechanical parts and assemblies' ) ;
#49 = EDGE_LOOP ( 'NONE', ( #42, #20, #177, #245 ) ) ;
#50 = DIRECTION ( 'NONE',  ( 0.000000000000000000, 0.000000000000000000, 1.000000000000000000 ) ) ;
#51 = CARTESIAN_POINT ( 'NONE',  ( -4.200000000000000178, 5.143516556418882928E-16, 4.999999999999991118 ) ) ;
#52 = DIRECTION ( 'NONE',  ( 1.000000000000000000, 0.000000000000000000, 0.000000000000000000 ) ) ;
#53 = LOCAL_TIME ( 14, 33, 48.00000000000000000, #162 ) ;
#54 = AXIS2_PLACEMENT_3D ( 'NONE', #208, #152, #89 ) ;
#55 = DIRECTION ( 'NONE',  ( 0.000000000000000000, 0.000000000000000000, 1.000000000000000000 ) ) ;
#56 = CIRCLE ( 'NONE', #288, 4.200000000000000178 ) ;
#57 = CC_DESIGN_PERSON_AND_ORGANIZATION_ASSIGNMENT ( #187, #229, ( #189 ) ) ;
#58 = DIRECTION ( 'NONE',  ( 0.000000000000000000, 0.000000000000000000, 1.000000000000000000 ) ) ;
#59 = EDGE_CURVE ( 'NONE', #107, #22, #56, .T. ) ;
#60 = PERSON_AND_ORGANIZATION ( #93, #234 ) ;
#61 = CARTESIAN_POINT ( 'NONE',  ( 0.000000000000000000, 0.000000000000000000, 5.000000000000000000 ) ) ;
#62 = APPROVAL_DATE_TIME ( #279, #247 ) ;
#63 = AXIS2_PLACEMENT_3D ( 'NONE', #263, #215, #119 ) ;
#64 = AXIS2_PLACEMENT_3D ( 'NONE', #128, #9, #222 ) ;
#65 = ORIENTED_EDGE ( 'NONE', *, *, #95, .F. ) ;
#66 = CARTESIAN_POINT ( 'NONE',  ( 0.000000000000000000, 0.000000000000000000, 505.0000000000000000 ) ) ;
#67 = DATE_TIME_ROLE ( 'classification_date' ) ;
#68 = EDGE_LOOP ( 'NONE', ( #77, #159 ) ) ;
#69 = LOCAL_TIME ( 14, 33, 48.00000000000000000, #41 ) ;
#70 = CARTESIAN_POINT ( 'NONE',  ( 4.000000000000000000, 4.898587196589412829E-16, 5.199999999999982414 ) ) ;
#71 = ADVANCED_FACE ( 'NONE', ( #256 ), #14, .T. ) ;
#72 = ADVANCED_FACE ( 'NONE', ( #161 ), #113, .F. ) ;
#73 = CYLINDRICAL_SURFACE ( 'NONE', #63, 7.000000000000000000 ) ;
#74 = ORIENTED_EDGE ( 'NONE', *, *, #270, .F. ) ;
#75 = FACE_OUTER_BOUND ( 'NONE', #186, .T. ) ;
#76 = TOROIDAL_SURFACE ( 'NONE', #121, 4.200000000000000178, 0.2000000000000000111 ) ;
#77 = ORIENTED_EDGE ( 'NONE', *, *, #225, .F. ) ;
#78 = CARTESIAN_POINT ( 'NONE',  ( 0.000000000000000000, 0.000000000000000000, 0.000000000000000000 ) ) ;
#79 = COORDINATED_UNIVERSAL_TIME_OFFSET ( 1, 0, .AHEAD. ) ;
#80 = AXIS2_PLACEMENT_3D ( 'NONE', #133, #58, #230 ) ;
#81 = APPLICATION_CONTEXT ( 'configuration controlled 3d designs of mechanical parts and assemblies' ) ;
#82 = CC_DESIGN_PERSON_AND_ORGANIZATION_ASSIGNMENT ( #141, #236, ( #191 ) ) ;
#83 = ADVANCED_FACE ( 'NONE', ( #281 ), #252, .T. ) ;
#84 = CC_DESIGN_APPROVAL ( #214, ( #189 ) ) ;
#85 = AXIS2_PLACEMENT_3D ( 'NONE', #111, #40, #17 ) ;
#86 = PERSON_AND_ORGANIZATION_ROLE ( 'design_owner' ) ;
#87 = DIRECTION ( 'NONE',  ( 1.000000000000000000, 0.000000000000000000, 0.000000000000000000 ) ) ;
#88 = ORIENTED_EDGE ( 'NONE', *, *, #262, .T. ) ;
#89 = DIRECTION ( 'NONE',  ( 1.000000000000000000, 0.000000000000000000, -0.000000000000000000 ) ) ;
#90 = APPROVAL_DATE_TIME ( #114, #214 ) ;
#91 = ORIENTED_EDGE ( 'NONE', *, *, #301, .F. ) ;
#92 = PERSON_AND_ORGANIZATION ( #93, #234 ) ;
#93 = PERSON ( 'NEURÈENÝ', 'NEURÈENÝ', 'NEURÈENÝ', ('NEURÈENÝ'), ('NEURÈENÝ'), ('NEURÈENÝ') ) ;
#94 = CARTESIAN_POINT ( 'NONE',  ( 0.000000000000000000, 0.000000000000000000, 5.000000000000000000 ) ) ;
#95 = EDGE_CURVE ( 'NONE', #7, #289, #24, .T. ) ;
#96 = CARTESIAN_POINT ( 'NONE',  ( 0.000000000000000000, 0.000000000000000000, 5.000000000000000000 ) ) ;
#97 = AXIS2_PLACEMENT_3D ( 'NONE', #96, #23, #44 ) ;
#98 = DIRECTION ( 'NONE',  ( -1.000000000000000000, 0.000000000000000000, 0.000000000000000000 ) ) ;
#99 = APPROVAL_PERSON_ORGANIZATION ( #92, #214, #112 ) ;
#100 = ORIENTED_EDGE ( 'NONE', *, *, #295, .T. ) ;
#101 = CYLINDRICAL_SURFACE ( 'NONE', #160, 4.000000000000000000 ) ;
#102 = AXIS2_PLACEMENT_3D ( 'NONE', #12, #106, #250 ) ;
#103 = ORIENTED_EDGE ( 'NONE', *, *, #200, .T. ) ;
#104 = CARTESIAN_POINT ( 'NONE',  ( 0.000000000000000000, 0.000000000000000000, 5.000000000000000000 ) ) ;
#105 = ADVANCED_FACE ( 'NONE', ( #168 ), #73, .T. ) ;
#106 = DIRECTION ( 'NONE',  ( 0.000000000000000000, 0.000000000000000000, 1.000000000000000000 ) ) ;
#107 = VERTEX_POINT ( 'NONE', #167 ) ;
#108 = CIRCLE ( 'NONE', #102, 4.000000000000000000 ) ;
#109 = AXIS2_PLACEMENT_3D ( 'NONE', #31, #219, #170 ) ;
#110 = LOCAL_TIME ( 14, 33, 48.00000000000000000, #136 ) ;
#111 = CARTESIAN_POINT ( 'NONE',  ( 0.000000000000000000, 0.000000000000000000, 505.0000000000000000 ) ) ;
#112 = APPROVAL_ROLE ( '' ) ;
#113 = PLANE ( 'NONE',  #54 ) ;
#114 = DATE_AND_TIME ( #226, #201 ) ;
#115 = DIRECTION ( 'NONE',  ( 1.000000000000000000, 0.000000000000000000, 0.000000000000000000 ) ) ;
#116 = EDGE_LOOP ( 'NONE', ( #212, #100 ) ) ;
#117 = CIRCLE ( 'NONE', #306, 0.1999999999999996503 ) ;
#118 = VERTEX_POINT ( 'NONE', #70 ) ;
#119 = DIRECTION ( 'NONE',  ( -1.000000000000000000, 0.000000000000000000, 0.000000000000000000 ) ) ;
#120 = CARTESIAN_POINT ( 'NONE',  ( -7.000000000000000000, 0.000000000000000000, 5.000000000000000000 ) ) ;
#121 = AXIS2_PLACEMENT_3D ( 'NONE', #266, #50, #248 ) ;
#122 = AXIS2_PLACEMENT_3D ( 'NONE', #94, #287, #188 ) ;
#123 = FACE_OUTER_BOUND ( 'NONE', #10, .T. ) ;
#124 = LINE ( 'NONE', #246, #223 ) ;
#125 = ORIENTED_EDGE ( 'NONE', *, *, #301, .T. ) ;
#126 = DIRECTION ( 'NONE',  ( -0.000000000000000000, -0.000000000000000000, -1.000000000000000000 ) ) ;
#127 = ADVANCED_FACE ( 'NONE', ( #145, #46 ), #260, .T. ) ;
#128 = CARTESIAN_POINT ( 'NONE',  ( 0.000000000000000000, 0.000000000000000000, 5.199999999999982414 ) ) ;
#129 = VERTEX_POINT ( 'NONE', #213 ) ;
#130 = TOROIDAL_SURFACE ( 'NONE', #176, 4.200000000000000178, 0.2000000000000000111 ) ;
#131 = AXIS2_PLACEMENT_3D ( 'NONE', #104, #126, #98 ) ;
#132 = DATE_AND_TIME ( #36, #110 ) ;
#133 = CARTESIAN_POINT ( 'NONE',  ( 0.000000000000000000, 0.000000000000000000, 0.000000000000000000 ) ) ;
#134 = CC_DESIGN_SECURITY_CLASSIFICATION ( #191, ( #189 ) ) ;
#135 = DIRECTION ( 'NONE',  ( 1.000000000000000000, 0.000000000000000000, 0.000000000000000000 ) ) ;
#136 = COORDINATED_UNIVERSAL_TIME_OFFSET ( 1, 0, .AHEAD. ) ;
#137 = PRODUCT_DEFINITION_SHAPE ( 'NONE', 'NONE',  #293 ) ;
#138 = CARTESIAN_POINT ( 'NONE',  ( -4.200000000000000178, 5.143516556418882928E-16, 5.199999999999982414 ) ) ;
#139 = CALENDAR_DATE ( 2022, 7, 7 ) ;
#140 = ORIENTED_EDGE ( 'NONE', *, *, #154, .T. ) ;
#141 = PERSON_AND_ORGANIZATION ( #93, #234 ) ;
#142 = VERTEX_POINT ( 'NONE', #2 ) ;
#143 = CARTESIAN_POINT ( 'NONE',  ( 7.000000000000000000, 8.572527594031473190E-16, 0.000000000000000000 ) ) ;
#144 = CIRCLE ( 'NONE', #1, 7.000000000000000000 ) ;
#145 = FACE_BOUND ( 'NONE', #296, .T. ) ;
#146 = DIRECTION ( 'NONE',  ( -0.000000000000000000, -0.000000000000000000, -1.000000000000000000 ) ) ;
#147 = CARTESIAN_POINT ( 'NONE',  ( 0.000000000000000000, 0.000000000000000000, 5.000000000000000000 ) ) ;
#148 = VERTEX_POINT ( 'NONE', #143 ) ;
#149 = DIRECTION ( 'NONE',  ( -0.000000000000000000, -0.000000000000000000, -1.000000000000000000 ) ) ;
#150 = EDGE_CURVE ( 'NONE', #173, #148, #237, .T. ) ;
#151 = CLOSED_SHELL ( 'NONE', ( #28, #172, #216, #105, #127, #72, #83, #71, #240 ) ) ;
#152 = DIRECTION ( 'NONE',  ( 0.000000000000000000, 0.000000000000000000, 1.000000000000000000 ) ) ;
#153 =( NAMED_UNIT ( * ) SI_UNIT ( $, .STERADIAN. ) SOLID_ANGLE_UNIT ( ) );
#154 = EDGE_CURVE ( 'NONE', #173, #7, #282, .T. ) ;
#155 = DIRECTION ( 'NONE',  ( 0.000000000000000000, 0.000000000000000000, 1.000000000000000000 ) ) ;
#156 = APPROVAL_ROLE ( '' ) ;
#157 = PERSON_AND_ORGANIZATION ( #93, #234 ) ;
#158 = CIRCLE ( 'NONE', #64, 4.000000000000000000 ) ;
#159 = ORIENTED_EDGE ( 'NONE', *, *, #202, .F. ) ;
#160 = AXIS2_PLACEMENT_3D ( 'NONE', #27, #194, #243 ) ;
#161 = FACE_OUTER_BOUND ( 'NONE', #68, .T. ) ;
#162 = COORDINATED_UNIVERSAL_TIME_OFFSET ( 1, 0, .AHEAD. ) ;
#163 = ORIENTED_EDGE ( 'NONE', *, *, #150, .T. ) ;
#164 = APPROVAL_STATUS ( 'not_yet_approved' ) ;
#165 = DIRECTION ( 'NONE',  ( -0.000000000000000000, -0.000000000000000000, -1.000000000000000000 ) ) ;
#166 = AXIS2_PLACEMENT_3D ( 'NONE', #232, #55, #115 ) ;
#167 = CARTESIAN_POINT ( 'NONE',  ( 4.200000000000000178, 0.000000000000000000, 4.999999999999991118 ) ) ;
#168 = FACE_OUTER_BOUND ( 'NONE', #49, .T. ) ;
#169 = LINE ( 'NONE', #267, #45 ) ;
#170 = DIRECTION ( 'NONE',  ( 1.000000000000000000, 0.000000000000000000, 0.000000000000000000 ) ) ;
#171 = CC_DESIGN_DATE_AND_TIME_ASSIGNMENT ( #132, #67, ( #191 ) ) ;
#172 = ADVANCED_FACE ( 'NONE', ( #285 ), #101, .T. ) ;
#173 = VERTEX_POINT ( 'NONE', #292 ) ;
#174 = DIRECTION ( 'NONE',  ( -0.000000000000000000, -0.000000000000000000, -1.000000000000000000 ) ) ;
#175 = CALENDAR_DATE ( 2022, 7, 7 ) ;
#176 = AXIS2_PLACEMENT_3D ( 'NONE', #302, #155, #228 ) ;
#177 = ORIENTED_EDGE ( 'NONE', *, *, #95, .T. ) ;
#178 =( GEOMETRIC_REPRESENTATION_CONTEXT ( 3 ) GLOBAL_UNCERTAINTY_ASSIGNED_CONTEXT ( ( #251 ) ) GLOBAL_UNIT_ASSIGNED_CONTEXT ( ( #221, #16, #153 ) ) REPRESENTATION_CONTEXT ( 'NONE', 'WORKASPACE' ) );
#179 = DIRECTION ( 'NONE',  ( 0.000000000000000000, 0.000000000000000000, 1.000000000000000000 ) ) ;
#180 = EDGE_CURVE ( 'NONE', #22, #107, #299, .T. ) ;
#181 = DIRECTION ( 'NONE',  ( 1.224646799147353207E-16, 1.000000000000000000, -0.000000000000000000 ) ) ;
#182 = PERSON_AND_ORGANIZATION ( #93, #234 ) ;
#183 = APPLICATION_PROTOCOL_DEFINITION ( 'international standard', 'config_control_design', 1994, #48 ) ;
#184 = ORIENTED_EDGE ( 'NONE', *, *, #37, .F. ) ;
#185 = DIRECTION ( 'NONE',  ( -1.000000000000000000, 1.224646799147353454E-16, 0.000000000000000000 ) ) ;
#186 = EDGE_LOOP ( 'NONE', ( #220, #258, #125, #30 ) ) ;
#187 = PERSON_AND_ORGANIZATION ( #93, #234 ) ;
#188 = DIRECTION ( 'NONE',  ( 1.000000000000000000, 0.000000000000000000, 0.000000000000000000 ) ) ;
#189 = PRODUCT_DEFINITION_FORMATION_WITH_SPECIFIED_SOURCE ( 'LIBOVOLNÝ', '', #276, .NOT_KNOWN. ) ;
#190 = CARTESIAN_POINT ( 'NONE',  ( 7.000000000000000000, 8.572527594031473190E-16, 5.000000000000000000 ) ) ;
#191 = SECURITY_CLASSIFICATION ( '', '', #253 ) ;
#192 = FACE_OUTER_BOUND ( 'NONE', #5, .T. ) ;
#193 = ORIENTED_EDGE ( 'NONE', *, *, #35, .T. ) ;
#194 = DIRECTION ( 'NONE',  ( -0.000000000000000000, -0.000000000000000000, -1.000000000000000000 ) ) ;
#195 = ORIENTED_EDGE ( 'NONE', *, *, #59, .T. ) ;
#196 = DIRECTION ( 'NONE',  ( 1.000000000000000000, 0.000000000000000000, 0.000000000000000000 ) ) ;
#197 = CIRCLE ( 'NONE', #109, 7.000000000000000000 ) ;
#198 = VECTOR ( 'NONE', #241, 1000.000000000000000 ) ;
#199 = AXIS2_PLACEMENT_3D ( 'NONE', #147, #174, #8 ) ;
#200 = EDGE_CURVE ( 'NONE', #142, #129, #124, .T. ) ;
#201 = LOCAL_TIME ( 14, 33, 48.00000000000000000, #209 ) ;
#202 = EDGE_CURVE ( 'NONE', #148, #289, #197, .T. ) ;
#203 = VECTOR ( 'NONE', #165, 1000.000000000000000 ) ;
#204 = CARTESIAN_POINT ( 'NONE',  ( 0.000000000000000000, 0.000000000000000000, 505.0000000000000000 ) ) ;
#205 = PERSON_AND_ORGANIZATION_ROLE ( 'design_supplier' ) ;
#206 = CARTESIAN_POINT ( 'NONE',  ( 4.200000000000000178, 0.000000000000000000, 5.199999999999982414 ) ) ;
#207 = ORIENTED_EDGE ( 'NONE', *, *, #202, .T. ) ;
#208 = CARTESIAN_POINT ( 'NONE',  ( 0.000000000000000000, 0.000000000000000000, 0.000000000000000000 ) ) ;
#209 = COORDINATED_UNIVERSAL_TIME_OFFSET ( 1, 0, .AHEAD. ) ;
#210 = DIRECTION ( 'NONE',  ( 0.000000000000000000, -1.000000000000000000, 0.000000000000000000 ) ) ;
#211 = ORIENTED_EDGE ( 'NONE', *, *, #180, .T. ) ;
#212 = ORIENTED_EDGE ( 'NONE', *, *, #37, .T. ) ;
#213 = CARTESIAN_POINT ( 'NONE',  ( -4.000000000000000000, 0.000000000000000000, 5.199999999999982414 ) ) ;
#214 = APPROVAL ( #164, 'NEURÈENÝ' ) ;
#215 = DIRECTION ( 'NONE',  ( -0.000000000000000000, -0.000000000000000000, -1.000000000000000000 ) ) ;
#216 = ADVANCED_FACE ( 'NONE', ( #192 ), #6, .T. ) ;
#217 = LOCAL_TIME ( 14, 33, 48.00000000000000000, #79 ) ;
#218 = ORIENTED_EDGE ( 'NONE', *, *, #200, .F. ) ;
#219 = DIRECTION ( 'NONE',  ( 0.000000000000000000, 0.000000000000000000, 1.000000000000000000 ) ) ;
#220 = ORIENTED_EDGE ( 'NONE', *, *, #35, .F. ) ;
#221 =( LENGTH_UNIT ( ) NAMED_UNIT ( * ) SI_UNIT ( .MILLI., .METRE. ) );
#222 = DIRECTION ( 'NONE',  ( 1.000000000000000000, 0.000000000000000000, 0.000000000000000000 ) ) ;
#223 = VECTOR ( 'NONE', #149, 1000.000000000000000 ) ;
#224 = CC_DESIGN_PERSON_AND_ORGANIZATION_ASSIGNMENT ( #231, #205, ( #189 ) ) ;
#225 = EDGE_CURVE ( 'NONE', #289, #148, #264, .T. ) ;
#226 = CALENDAR_DATE ( 2022, 7, 7 ) ;
#227 = MECHANICAL_CONTEXT ( 'NONE', #81, 'mechanical' ) ;
#228 = DIRECTION ( 'NONE',  ( 1.000000000000000000, 0.000000000000000000, 0.000000000000000000 ) ) ;
#229 = PERSON_AND_ORGANIZATION_ROLE ( 'creator' ) ;
#230 = DIRECTION ( 'NONE',  ( 1.000000000000000000, 0.000000000000000000, 0.000000000000000000 ) ) ;
#231 = PERSON_AND_ORGANIZATION ( #93, #234 ) ;
#232 = CARTESIAN_POINT ( 'NONE',  ( 0.000000000000000000, 0.000000000000000000, 505.0000000000000000 ) ) ;
#233 = ORIENTED_EDGE ( 'NONE', *, *, #59, .F. ) ;
#234 = ORGANIZATION ( 'NEURÈENÝ', 'NEURÈENÝ', '' ) ;
#235 = EDGE_LOOP ( 'NONE', ( #283, #184, #103, #291 ) ) ;
#236 = PERSON_AND_ORGANIZATION_ROLE ( 'classification_officer' ) ;
#237 = LINE ( 'NONE', #190, #198 ) ;
#238 = CC_DESIGN_DATE_AND_TIME_ASSIGNMENT ( #32, #290, ( #293 ) ) ;
#239 = PRODUCT_RELATED_PRODUCT_CATEGORY ( 'detail', '', ( #276 ) ) ;
#240 = ADVANCED_FACE ( 'NONE', ( #75 ), #76, .F. ) ;
#241 = DIRECTION ( 'NONE',  ( -0.000000000000000000, -0.000000000000000000, -1.000000000000000000 ) ) ;
#242 = CARTESIAN_POINT ( 'NONE',  ( 4.000000000000000000, 4.898587196589412829E-16, 505.0000000000000000 ) ) ;
#243 = DIRECTION ( 'NONE',  ( -1.000000000000000000, 0.000000000000000000, 0.000000000000000000 ) ) ;
#244 = APPROVAL_PERSON_ORGANIZATION ( #60, #247, #254 ) ;
#245 = ORIENTED_EDGE ( 'NONE', *, *, #225, .T. ) ;
#246 = CARTESIAN_POINT ( 'NONE',  ( -4.000000000000000000, 0.000000000000000000, 505.0000000000000000 ) ) ;
#247 = APPROVAL ( #257, 'NEURÈENÝ' ) ;
#248 = DIRECTION ( 'NONE',  ( 1.000000000000000000, 0.000000000000000000, 0.000000000000000000 ) ) ;
#249 = APPROVAL_STATUS ( 'not_yet_approved' ) ;
#250 = DIRECTION ( 'NONE',  ( 1.000000000000000000, 0.000000000000000000, 0.000000000000000000 ) ) ;
#251 = UNCERTAINTY_MEASURE_WITH_UNIT (LENGTH_MEASURE( 1.000000000000000082E-05 ), #221, 'distance_accuracy_value', 'NONE');
#252 = CYLINDRICAL_SURFACE ( 'NONE', #33, 4.000000000000000000 ) ;
#253 = SECURITY_CLASSIFICATION_LEVEL ( 'unclassified' ) ;
#254 = APPROVAL_ROLE ( '' ) ;
#255 = AXIS2_PLACEMENT_3D ( 'NONE', #206, #210, #273 ) ;
#256 = FACE_OUTER_BOUND ( 'NONE', #116, .T. ) ;
#257 = APPROVAL_STATUS ( 'not_yet_approved' ) ;
#258 = ORIENTED_EDGE ( 'NONE', *, *, #262, .F. ) ;
#259 = ORIENTED_EDGE ( 'NONE', *, *, #13, .T. ) ;
#260 = PLANE ( 'NONE',  #97 ) ;
#261 = CC_DESIGN_APPROVAL ( #294, ( #191 ) ) ;
#262 = EDGE_CURVE ( 'NONE', #118, #129, #158, .T. ) ;
#263 = CARTESIAN_POINT ( 'NONE',  ( 0.000000000000000000, 0.000000000000000000, 5.000000000000000000 ) ) ;
#264 = CIRCLE ( 'NONE', #307, 7.000000000000000000 ) ;
#265 = CARTESIAN_POINT ( 'NONE',  ( -7.000000000000000000, 0.000000000000000000, 5.000000000000000000 ) ) ;
#266 = CARTESIAN_POINT ( 'NONE',  ( 0.000000000000000000, 0.000000000000000000, 5.199999999999982414 ) ) ;
#267 = CARTESIAN_POINT ( 'NONE',  ( 4.000000000000000000, 4.898587196589412829E-16, 505.0000000000000000 ) ) ;
#268 = DIRECTION ( 'NONE',  ( 0.000000000000000000, 0.000000000000000000, 1.000000000000000000 ) ) ;
#269 = CC_DESIGN_PERSON_AND_ORGANIZATION_ASSIGNMENT ( #300, #86, ( #276 ) ) ;
#270 = EDGE_CURVE ( 'NONE', #129, #118, #108, .T. ) ;
#271 = PERSON_AND_ORGANIZATION_ROLE ( 'creator' ) ;
#272 = CIRCLE ( 'NONE', #25, 4.000000000000000000 ) ;
#273 = DIRECTION ( 'NONE',  ( 0.000000000000000000, 0.000000000000000000, -1.000000000000000000 ) ) ;
#274 = APPLICATION_PROTOCOL_DEFINITION ( 'international standard', 'config_control_design', 1994, #81 ) ;
#275 = MANIFOLD_SOLID_BREP ( 'Zaoblit1', #151 ) ;
#276 = PRODUCT ( 'ec8d', 'ec8d', '', ( #227 ) ) ;
#277 = DESIGN_CONTEXT ( 'detailed design', #48, 'design' ) ;
#278 = DIRECTION ( 'NONE',  ( -0.000000000000000000, -0.000000000000000000, -1.000000000000000000 ) ) ;
#279 = DATE_AND_TIME ( #175, #217 ) ;
#280 = EDGE_LOOP ( 'NONE', ( #298, #259, #88, #218 ) ) ;
#281 = FACE_OUTER_BOUND ( 'NONE', #235, .T. ) ;
#282 = CIRCLE ( 'NONE', #122, 7.000000000000000000 ) ;
#283 = ORIENTED_EDGE ( 'NONE', *, *, #13, .F. ) ;
#284 = EDGE_CURVE ( 'NONE', #7, #173, #144, .T. ) ;
#285 = FACE_OUTER_BOUND ( 'NONE', #280, .T. ) ;
#286 = CIRCLE ( 'NONE', #166, 4.000000000000000000 ) ;
#287 = DIRECTION ( 'NONE',  ( 0.000000000000000000, 0.000000000000000000, 1.000000000000000000 ) ) ;
#288 = AXIS2_PLACEMENT_3D ( 'NONE', #61, #278, #87 ) ;
#289 = VERTEX_POINT ( 'NONE', #297 ) ;
#290 = DATE_TIME_ROLE ( 'creation_date' ) ;
#291 = ORIENTED_EDGE ( 'NONE', *, *, #270, .T. ) ;
#292 = CARTESIAN_POINT ( 'NONE',  ( 7.000000000000000000, 8.572527594031473190E-16, 5.000000000000000000 ) ) ;
#293 = PRODUCT_DEFINITION ( 'NEZNÁMÝ', '', #189, #277 ) ;
#294 = APPROVAL ( #249, 'NEURÈENÝ' ) ;
#295 = EDGE_CURVE ( 'NONE', #26, #142, #286, .T. ) ;
#296 = EDGE_LOOP ( 'NONE', ( #195, #211 ) ) ;
#297 = CARTESIAN_POINT ( 'NONE',  ( -7.000000000000000000, 0.000000000000000000, 0.000000000000000000 ) ) ;
#298 = ORIENTED_EDGE ( 'NONE', *, *, #295, .F. ) ;
#299 = CIRCLE ( 'NONE', #199, 4.200000000000000178 ) ;
#300 = PERSON_AND_ORGANIZATION ( #93, #234 ) ;
#301 = EDGE_CURVE ( 'NONE', #118, #107, #4, .T. ) ;
#302 = CARTESIAN_POINT ( 'NONE',  ( 0.000000000000000000, 0.000000000000000000, 5.199999999999982414 ) ) ;
#303 = ORIENTED_EDGE ( 'NONE', *, *, #284, .T. ) ;
#304 = DIRECTION ( 'NONE',  ( 0.000000000000000000, 0.000000000000000000, 1.000000000000000000 ) ) ;
#305 = EDGE_LOOP ( 'NONE', ( #303, #140 ) ) ;
#306 = AXIS2_PLACEMENT_3D ( 'NONE', #138, #181, #185 ) ;
#307 = AXIS2_PLACEMENT_3D ( 'NONE', #78, #268, #52 ) ;
ENDSEC;
END-ISO-10303-21;
