ISO-10303-21;
HEADER;
FILE_DESCRIPTION (( 'STEP AP203' ),
    '1' );
FILE_NAME ('82fe.STEP',
    '2022-07-07T12:56:43',
    ( '' ),
    ( '' ),
    'SwSTEP 2.0',
    'SolidWorks 2019',
    '' );
FILE_SCHEMA (( 'CONFIG_CONTROL_DESIGN' ));
ENDSEC;

DATA;
#1 = DIRECTION ( 'NONE',  ( 1.000000000000000000, 0.000000000000000000, 0.000000000000000000 ) ) ;
#2 = CALENDAR_DATE ( 2022, 7, 7 ) ;
#3 = VECTOR ( 'NONE', #159, 1000.000000000000000 ) ;
#4 = CARTESIAN_POINT ( 'NONE',  ( 0.000000000000000000, 0.000000000000000000, 2.000000000000000000 ) ) ;
#5 = AXIS2_PLACEMENT_3D ( 'NONE', #26, #205, #48 ) ;
#6 = PERSON_AND_ORGANIZATION ( #238, #52 ) ;
#7 = ORIENTED_EDGE ( 'NONE', *, *, #125, .F. ) ;
#8 = APPROVAL_STATUS ( 'not_yet_approved' ) ;
#9 = VERTEX_POINT ( 'NONE', #80 ) ;
#10 = ORIENTED_EDGE ( 'NONE', *, *, #148, .T. ) ;
#11 = ORIENTED_EDGE ( 'NONE', *, *, #290, .F. ) ;
#12 = CIRCLE ( 'NONE', #193, 0.2000000000000000944 ) ;
#13 = APPROVAL ( #58, 'NEURÈENÝ' ) ;
#14 = EDGE_LOOP ( 'NONE', ( #74, #10, #173, #98 ) ) ;
#15 = PRODUCT ( '82fe', '82fe', '', ( #117 ) ) ;
#16 = DIRECTION ( 'NONE',  ( 1.224646799147353207E-16, 1.000000000000000000, -0.000000000000000000 ) ) ;
#17 = DIRECTION ( 'NONE',  ( 0.000000000000000000, 0.000000000000000000, 1.000000000000000000 ) ) ;
#18 = EDGE_CURVE ( 'NONE', #215, #176, #198, .T. ) ;
#19 = CALENDAR_DATE ( 2022, 7, 7 ) ;
#20 = DIRECTION ( 'NONE',  ( 1.000000000000000000, 0.000000000000000000, 0.000000000000000000 ) ) ;
#21 = COORDINATED_UNIVERSAL_TIME_OFFSET ( 1, 0, .AHEAD. ) ;
#22 = PLANE ( 'NONE',  #185 ) ;
#23 = FACE_OUTER_BOUND ( 'NONE', #128, .T. ) ;
#24 = CC_DESIGN_PERSON_AND_ORGANIZATION_ASSIGNMENT ( #227, #262, ( #165 ) ) ;
#25 = FACE_OUTER_BOUND ( 'NONE', #240, .T. ) ;
#26 = CARTESIAN_POINT ( 'NONE',  ( 0.000000000000000000, 0.000000000000000000, 102.0000000000000142 ) ) ;
#27 = DIRECTION ( 'NONE',  ( 0.000000000000000000, 0.000000000000000000, 1.000000000000000000 ) ) ;
#28 = DATE_AND_TIME ( #177, #297 ) ;
#29 = DIRECTION ( 'NONE',  ( -0.000000000000000000, -0.000000000000000000, -1.000000000000000000 ) ) ;
#30 = AXIS2_PLACEMENT_3D ( 'NONE', #202, #62, #1 ) ;
#31 =( NAMED_UNIT ( * ) SI_UNIT ( $, .STERADIAN. ) SOLID_ANGLE_UNIT ( ) );
#32 = EDGE_CURVE ( 'NONE', #93, #216, #284, .T. ) ;
#33 = ORIENTED_EDGE ( 'NONE', *, *, #75, .F. ) ;
#34 = CIRCLE ( 'NONE', #51, 2.500000000000000000 ) ;
#35 = ORIENTED_EDGE ( 'NONE', *, *, #290, .T. ) ;
#36 = ORIENTED_EDGE ( 'NONE', *, *, #18, .T. ) ;
#37 = EDGE_LOOP ( 'NONE', ( #145, #289, #106, #167 ) ) ;
#38 = DIRECTION ( 'NONE',  ( -1.000000000000000000, 0.000000000000000000, 0.000000000000000000 ) ) ;
#39 = PERSON_AND_ORGANIZATION_ROLE ( 'creator' ) ;
#40 = VERTEX_POINT ( 'NONE', #76 ) ;
#41 = TOROIDAL_SURFACE ( 'NONE', #192, 1.450000000000000178, 0.2000000000000000111 ) ;
#42 = CIRCLE ( 'NONE', #304, 2.500000000000000000 ) ;
#43 = APPROVAL_STATUS ( 'not_yet_approved' ) ;
#44 = DIRECTION ( 'NONE',  ( 1.000000000000000000, 0.000000000000000000, -0.000000000000000000 ) ) ;
#45 = CALENDAR_DATE ( 2022, 7, 7 ) ;
#46 = CARTESIAN_POINT ( 'NONE',  ( 1.250000000000000000, 1.530808498934191571E-16, 102.0000000000000142 ) ) ;
#47 = CARTESIAN_POINT ( 'NONE',  ( -2.500000000000000000, 0.000000000000000000, 2.000000000000000000 ) ) ;
#48 = DIRECTION ( 'NONE',  ( 1.000000000000000000, 0.000000000000000000, 0.000000000000000000 ) ) ;
#49 = SHAPE_DEFINITION_REPRESENTATION ( #85, #63 ) ;
#50 = ADVANCED_FACE ( 'NONE', ( #218 ), #41, .F. ) ;
#51 = AXIS2_PLACEMENT_3D ( 'NONE', #294, #175, #172 ) ;
#52 = ORGANIZATION ( 'NEURÈENÝ', 'NEURÈENÝ', '' ) ;
#53 = CARTESIAN_POINT ( 'NONE',  ( 0.000000000000000000, 0.000000000000000000, 2.199999999999993516 ) ) ;
#54 = CARTESIAN_POINT ( 'NONE',  ( 0.000000000000000000, 0.000000000000000000, 2.199999999999993516 ) ) ;
#55 = ORIENTED_EDGE ( 'NONE', *, *, #239, .F. ) ;
#56 = DIRECTION ( 'NONE',  ( -0.000000000000000000, -0.000000000000000000, -1.000000000000000000 ) ) ;
#57 = CARTESIAN_POINT ( 'NONE',  ( 0.000000000000000000, 0.000000000000000000, 2.199999999999993516 ) ) ;
#58 = APPROVAL_STATUS ( 'not_yet_approved' ) ;
#59 = FACE_OUTER_BOUND ( 'NONE', #150, .T. ) ;
#60 = EDGE_CURVE ( 'NONE', #73, #9, #34, .T. ) ;
#61 = CARTESIAN_POINT ( 'NONE',  ( 1.250000000000000000, 1.530808498934191571E-16, 102.0000000000000142 ) ) ;
#62 = DIRECTION ( 'NONE',  ( -0.000000000000000000, -0.000000000000000000, -1.000000000000000000 ) ) ;
#63 = ADVANCED_BREP_SHAPE_REPRESENTATION ( '82fe', ( #127, #66 ), #121 ) ;
#64 = CIRCLE ( 'NONE', #222, 1.450000000000000178 ) ;
#65 = CC_DESIGN_PERSON_AND_ORGANIZATION_ASSIGNMENT ( #300, #108, ( #165 ) ) ;
#66 = AXIS2_PLACEMENT_3D ( 'NONE', #213, #285, #287 ) ;
#67 = FACE_OUTER_BOUND ( 'NONE', #123, .T. ) ;
#68 = CIRCLE ( 'NONE', #105, 0.2000000000000000944 ) ;
#69 = DATE_TIME_ROLE ( 'classification_date' ) ;
#70 = CARTESIAN_POINT ( 'NONE',  ( 0.000000000000000000, 0.000000000000000000, 2.000000000000000000 ) ) ;
#71 = APPROVAL_DATE_TIME ( #28, #107 ) ;
#72 = CC_DESIGN_PERSON_AND_ORGANIZATION_ASSIGNMENT ( #254, #39, ( #122 ) ) ;
#73 = VERTEX_POINT ( 'NONE', #151 ) ;
#74 = ORIENTED_EDGE ( 'NONE', *, *, #162, .F. ) ;
#75 = EDGE_CURVE ( 'NONE', #40, #212, #64, .T. ) ;
#76 = CARTESIAN_POINT ( 'NONE',  ( 1.450000000000000178, 0.000000000000000000, 1.999999999999996669 ) ) ;
#77 = DIRECTION ( 'NONE',  ( 1.000000000000000000, 0.000000000000000000, 0.000000000000000000 ) ) ;
#78 = CYLINDRICAL_SURFACE ( 'NONE', #131, 1.250000000000000000 ) ;
#79 = CC_DESIGN_DATE_AND_TIME_ASSIGNMENT ( #225, #251, ( #122 ) ) ;
#80 = CARTESIAN_POINT ( 'NONE',  ( 2.500000000000000000, 3.061616997868383141E-16, 2.000000000000000000 ) ) ;
#81 = DATE_AND_TIME ( #199, #104 ) ;
#82 = LINE ( 'NONE', #182, #3 ) ;
#83 = PERSON_AND_ORGANIZATION ( #238, #52 ) ;
#84 = CARTESIAN_POINT ( 'NONE',  ( 0.000000000000000000, 0.000000000000000000, 0.000000000000000000 ) ) ;
#85 = PRODUCT_DEFINITION_SHAPE ( 'NONE', 'NONE',  #122 ) ;
#86 = DIRECTION ( 'NONE',  ( 0.000000000000000000, 0.000000000000000000, -1.000000000000000000 ) ) ;
#87 = LINE ( 'NONE', #46, #119 ) ;
#88 = CC_DESIGN_PERSON_AND_ORGANIZATION_ASSIGNMENT ( #6, #302, ( #15 ) ) ;
#89 = CARTESIAN_POINT ( 'NONE',  ( -1.450000000000000178, 1.775737858763662409E-16, 1.999999999999996669 ) ) ;
#90 = DATE_AND_TIME ( #2, #283 ) ;
#91 = DIRECTION ( 'NONE',  ( 0.000000000000000000, 0.000000000000000000, 1.000000000000000000 ) ) ;
#92 =( NAMED_UNIT ( * ) PLANE_ANGLE_UNIT ( ) SI_UNIT ( $, .RADIAN. ) );
#93 = VERTEX_POINT ( 'NONE', #247 ) ;
#94 = APPROVAL_DATE_TIME ( #278, #242 ) ;
#95 = ADVANCED_FACE ( 'NONE', ( #274 ), #252, .T. ) ;
#96 = CIRCLE ( 'NONE', #272, 2.500000000000000000 ) ;
#97 = ORIENTED_EDGE ( 'NONE', *, *, #140, .T. ) ;
#98 = ORIENTED_EDGE ( 'NONE', *, *, #282, .F. ) ;
#99 = DIRECTION ( 'NONE',  ( 1.000000000000000000, 0.000000000000000000, 0.000000000000000000 ) ) ;
#100 = VECTOR ( 'NONE', #141, 1000.000000000000000 ) ;
#101 = DIRECTION ( 'NONE',  ( 0.000000000000000000, 0.000000000000000000, 1.000000000000000000 ) ) ;
#102 = DIRECTION ( 'NONE',  ( -1.000000000000000000, 1.224646799147353207E-16, 0.000000000000000000 ) ) ;
#103 = EDGE_LOOP ( 'NONE', ( #298, #263 ) ) ;
#104 = LOCAL_TIME ( 14, 56, 43.00000000000000000, #236 ) ;
#105 = AXIS2_PLACEMENT_3D ( 'NONE', #219, #16, #102 ) ;
#106 = ORIENTED_EDGE ( 'NONE', *, *, #282, .T. ) ;
#107 = APPROVAL ( #43, 'NEURÈENÝ' ) ;
#108 = PERSON_AND_ORGANIZATION_ROLE ( 'creator' ) ;
#109 = FACE_BOUND ( 'NONE', #103, .T. ) ;
#110 = CYLINDRICAL_SURFACE ( 'NONE', #269, 1.250000000000000000 ) ;
#111 = APPROVAL_PERSON_ORGANIZATION ( #115, #242, #134 ) ;
#112 = CARTESIAN_POINT ( 'NONE',  ( 0.000000000000000000, 0.000000000000000000, 102.0000000000000142 ) ) ;
#113 = CC_DESIGN_SECURITY_CLASSIFICATION ( #288, ( #165 ) ) ;
#114 = DIRECTION ( 'NONE',  ( 0.000000000000000000, 0.000000000000000000, 1.000000000000000000 ) ) ;
#115 = PERSON_AND_ORGANIZATION ( #238, #52 ) ;
#116 = FACE_OUTER_BOUND ( 'NONE', #14, .T. ) ;
#117 = MECHANICAL_CONTEXT ( 'NONE', #166, 'mechanical' ) ;
#118 = AXIS2_PLACEMENT_3D ( 'NONE', #70, #27, #231 ) ;
#119 = VECTOR ( 'NONE', #228, 1000.000000000000000 ) ;
#120 = CIRCLE ( 'NONE', #296, 1.250000000000000000 ) ;
#121 =( GEOMETRIC_REPRESENTATION_CONTEXT ( 3 ) GLOBAL_UNCERTAINTY_ASSIGNED_CONTEXT ( ( #189 ) ) GLOBAL_UNIT_ASSIGNED_CONTEXT ( ( #261, #92, #31 ) ) REPRESENTATION_CONTEXT ( 'NONE', 'WORKASPACE' ) );
#122 = PRODUCT_DEFINITION ( 'NEZNÁMÝ', '', #165, #234 ) ;
#123 = EDGE_LOOP ( 'NONE', ( #36, #35 ) ) ;
#124 = ORIENTED_EDGE ( 'NONE', *, *, #266, .F. ) ;
#125 = EDGE_CURVE ( 'NONE', #93, #212, #68, .T. ) ;
#126 = CARTESIAN_POINT ( 'NONE',  ( 0.000000000000000000, 0.000000000000000000, 2.000000000000000000 ) ) ;
#127 = MANIFOLD_SOLID_BREP ( 'Zaoblit1', #259 ) ;
#128 = EDGE_LOOP ( 'NONE', ( #270, #152 ) ) ;
#129 = PERSON_AND_ORGANIZATION_ROLE ( 'classification_officer' ) ;
#130 = ORIENTED_EDGE ( 'NONE', *, *, #18, .F. ) ;
#131 = AXIS2_PLACEMENT_3D ( 'NONE', #273, #56, #38 ) ;
#132 = ADVANCED_FACE ( 'NONE', ( #295 ), #78, .T. ) ;
#133 = AXIS2_PLACEMENT_3D ( 'NONE', #135, #114, #281 ) ;
#134 = APPROVAL_ROLE ( '' ) ;
#135 = CARTESIAN_POINT ( 'NONE',  ( 0.000000000000000000, 0.000000000000000000, 102.0000000000000142 ) ) ;
#136 = APPROVAL_ROLE ( '' ) ;
#137 = DIRECTION ( 'NONE',  ( 0.000000000000000000, 0.000000000000000000, 1.000000000000000000 ) ) ;
#138 = CARTESIAN_POINT ( 'NONE',  ( 0.000000000000000000, 0.000000000000000000, 2.000000000000000000 ) ) ;
#139 = CIRCLE ( 'NONE', #5, 1.250000000000000000 ) ;
#140 = EDGE_CURVE ( 'NONE', #216, #93, #120, .T. ) ;
#141 = DIRECTION ( 'NONE',  ( -0.000000000000000000, -0.000000000000000000, -1.000000000000000000 ) ) ;
#142 = DIRECTION ( 'NONE',  ( 1.000000000000000000, 0.000000000000000000, 0.000000000000000000 ) ) ;
#143 = APPROVAL_ROLE ( '' ) ;
#144 = AXIS2_PLACEMENT_3D ( 'NONE', #194, #293, #221 ) ;
#145 = ORIENTED_EDGE ( 'NONE', *, *, #148, .F. ) ;
#146 = VERTEX_POINT ( 'NONE', #200 ) ;
#147 = VERTEX_POINT ( 'NONE', #301 ) ;
#148 = EDGE_CURVE ( 'NONE', #9, #146, #82, .T. ) ;
#149 = DIRECTION ( 'NONE',  ( 1.000000000000000000, 0.000000000000000000, 0.000000000000000000 ) ) ;
#150 = EDGE_LOOP ( 'NONE', ( #243, #169, #33, #124 ) ) ;
#151 = CARTESIAN_POINT ( 'NONE',  ( -2.500000000000000000, 0.000000000000000000, 2.000000000000000000 ) ) ;
#152 = ORIENTED_EDGE ( 'NONE', *, *, #162, .T. ) ;
#153 = APPLICATION_PROTOCOL_DEFINITION ( 'international standard', 'config_control_design', 1994, #174 ) ;
#154 = CARTESIAN_POINT ( 'NONE',  ( -1.250000000000000000, 0.000000000000000000, 102.0000000000000142 ) ) ;
#155 = DIRECTION ( 'NONE',  ( -0.000000000000000000, -0.000000000000000000, -1.000000000000000000 ) ) ;
#156 = ADVANCED_FACE ( 'NONE', ( #25 ), #22, .F. ) ;
#157 = DIRECTION ( 'NONE',  ( 1.000000000000000000, 0.000000000000000000, 0.000000000000000000 ) ) ;
#158 = AXIS2_PLACEMENT_3D ( 'NONE', #53, #101, #99 ) ;
#159 = DIRECTION ( 'NONE',  ( -0.000000000000000000, -0.000000000000000000, -1.000000000000000000 ) ) ;
#160 = APPROVAL_DATE_TIME ( #90, #13 ) ;
#161 = DIRECTION ( 'NONE',  ( 0.000000000000000000, 0.000000000000000000, 1.000000000000000000 ) ) ;
#162 = EDGE_CURVE ( 'NONE', #9, #73, #209, .T. ) ;
#163 = COORDINATED_UNIVERSAL_TIME_OFFSET ( 1, 0, .AHEAD. ) ;
#164 = EDGE_LOOP ( 'NONE', ( #7, #245, #267, #244 ) ) ;
#165 = PRODUCT_DEFINITION_FORMATION_WITH_SPECIFIED_SOURCE ( 'LIBOVOLNÝ', '', #15, .NOT_KNOWN. ) ;
#166 = APPLICATION_CONTEXT ( 'configuration controlled 3d designs of mechanical parts and assemblies' ) ;
#167 = ORIENTED_EDGE ( 'NONE', *, *, #181, .T. ) ;
#168 = ADVANCED_FACE ( 'NONE', ( #109, #23 ), #303, .T. ) ;
#169 = ORIENTED_EDGE ( 'NONE', *, *, #125, .T. ) ;
#170 = CIRCLE ( 'NONE', #30, 1.450000000000000178 ) ;
#171 = DIRECTION ( 'NONE',  ( -0.000000000000000000, -0.000000000000000000, -1.000000000000000000 ) ) ;
#172 = DIRECTION ( 'NONE',  ( 1.000000000000000000, 0.000000000000000000, 0.000000000000000000 ) ) ;
#173 = ORIENTED_EDGE ( 'NONE', *, *, #276, .T. ) ;
#174 = APPLICATION_CONTEXT ( 'configuration controlled 3d designs of mechanical parts and assemblies' ) ;
#175 = DIRECTION ( 'NONE',  ( 0.000000000000000000, 0.000000000000000000, 1.000000000000000000 ) ) ;
#176 = VERTEX_POINT ( 'NONE', #61 ) ;
#177 = CALENDAR_DATE ( 2022, 7, 7 ) ;
#178 = DIRECTION ( 'NONE',  ( -0.000000000000000000, -0.000000000000000000, -1.000000000000000000 ) ) ;
#179 = APPROVAL_PERSON_ORGANIZATION ( #211, #107, #143 ) ;
#180 = FACE_OUTER_BOUND ( 'NONE', #195, .T. ) ;
#181 = EDGE_CURVE ( 'NONE', #147, #146, #42, .T. ) ;
#182 = CARTESIAN_POINT ( 'NONE',  ( 2.500000000000000000, 3.061616997868383141E-16, 2.000000000000000000 ) ) ;
#183 = CARTESIAN_POINT ( 'NONE',  ( 1.250000000000000000, 1.530808498934191571E-16, 2.199999999999993516 ) ) ;
#184 = AXIS2_PLACEMENT_3D ( 'NONE', #286, #186, #142 ) ;
#185 = AXIS2_PLACEMENT_3D ( 'NONE', #204, #161, #256 ) ;
#186 = DIRECTION ( 'NONE',  ( 0.000000000000000000, 0.000000000000000000, 1.000000000000000000 ) ) ;
#187 = APPLICATION_PROTOCOL_DEFINITION ( 'international standard', 'config_control_design', 1994, #166 ) ;
#188 = PERSON_AND_ORGANIZATION ( #238, #52 ) ;
#189 = UNCERTAINTY_MEASURE_WITH_UNIT (LENGTH_MEASURE( 1.000000000000000082E-05 ), #261, 'distance_accuracy_value', 'NONE');
#190 = ADVANCED_FACE ( 'NONE', ( #180 ), #110, .T. ) ;
#191 = EDGE_LOOP ( 'NONE', ( #11, #277, #97, #55 ) ) ;
#192 = AXIS2_PLACEMENT_3D ( 'NONE', #54, #17, #77 ) ;
#193 = AXIS2_PLACEMENT_3D ( 'NONE', #258, #226, #86 ) ;
#194 = CARTESIAN_POINT ( 'NONE',  ( 0.000000000000000000, 0.000000000000000000, 102.0000000000000142 ) ) ;
#195 = EDGE_LOOP ( 'NONE', ( #196, #130, #237, #197 ) ) ;
#196 = ORIENTED_EDGE ( 'NONE', *, *, #220, .F. ) ;
#197 = ORIENTED_EDGE ( 'NONE', *, *, #32, .T. ) ;
#198 = CIRCLE ( 'NONE', #144, 1.250000000000000000 ) ;
#199 = CALENDAR_DATE ( 2022, 7, 7 ) ;
#200 = CARTESIAN_POINT ( 'NONE',  ( 2.500000000000000000, 3.061616997868383141E-16, 0.000000000000000000 ) ) ;
#201 = SECURITY_CLASSIFICATION_LEVEL ( 'unclassified' ) ;
#202 = CARTESIAN_POINT ( 'NONE',  ( 0.000000000000000000, 0.000000000000000000, 2.000000000000000000 ) ) ;
#203 = LOCAL_TIME ( 14, 56, 43.00000000000000000, #21 ) ;
#204 = CARTESIAN_POINT ( 'NONE',  ( 0.000000000000000000, 0.000000000000000000, 0.000000000000000000 ) ) ;
#205 = DIRECTION ( 'NONE',  ( 0.000000000000000000, 0.000000000000000000, 1.000000000000000000 ) ) ;
#206 = PRODUCT_RELATED_PRODUCT_CATEGORY ( 'detail', '', ( #15 ) ) ;
#207 = COORDINATED_UNIVERSAL_TIME_OFFSET ( 1, 0, .AHEAD. ) ;
#208 = CYLINDRICAL_SURFACE ( 'NONE', #210, 2.500000000000000000 ) ;
#209 = CIRCLE ( 'NONE', #118, 2.500000000000000000 ) ;
#210 = AXIS2_PLACEMENT_3D ( 'NONE', #4, #29, #235 ) ;
#211 = PERSON_AND_ORGANIZATION ( #238, #52 ) ;
#212 = VERTEX_POINT ( 'NONE', #89 ) ;
#213 = CARTESIAN_POINT ( 'NONE',  ( 0.000000000000000000, 0.000000000000000000, 0.000000000000000000 ) ) ;
#214 = EDGE_CURVE ( 'NONE', #212, #40, #170, .T. ) ;
#215 = VERTEX_POINT ( 'NONE', #154 ) ;
#216 = VERTEX_POINT ( 'NONE', #183 ) ;
#217 = LOCAL_TIME ( 14, 56, 43.00000000000000000, #275 ) ;
#218 = FACE_OUTER_BOUND ( 'NONE', #164, .T. ) ;
#219 = CARTESIAN_POINT ( 'NONE',  ( -1.450000000000000178, 1.775737858763662163E-16, 2.199999999999993516 ) ) ;
#220 = EDGE_CURVE ( 'NONE', #176, #216, #87, .T. ) ;
#221 = DIRECTION ( 'NONE',  ( 1.000000000000000000, 0.000000000000000000, 0.000000000000000000 ) ) ;
#222 = AXIS2_PLACEMENT_3D ( 'NONE', #249, #253, #149 ) ;
#223 = APPROVAL_PERSON_ORGANIZATION ( #83, #13, #136 ) ;
#224 = DIRECTION ( 'NONE',  ( 0.000000000000000000, 0.000000000000000000, 1.000000000000000000 ) ) ;
#225 = DATE_AND_TIME ( #19, #217 ) ;
#226 = DIRECTION ( 'NONE',  ( 0.000000000000000000, -1.000000000000000000, 0.000000000000000000 ) ) ;
#227 = PERSON_AND_ORGANIZATION ( #238, #52 ) ;
#228 = DIRECTION ( 'NONE',  ( -0.000000000000000000, -0.000000000000000000, -1.000000000000000000 ) ) ;
#229 = CARTESIAN_POINT ( 'NONE',  ( 0.000000000000000000, 0.000000000000000000, 0.000000000000000000 ) ) ;
#230 = VECTOR ( 'NONE', #155, 1000.000000000000000 ) ;
#231 = DIRECTION ( 'NONE',  ( 1.000000000000000000, 0.000000000000000000, 0.000000000000000000 ) ) ;
#232 = CC_DESIGN_DATE_AND_TIME_ASSIGNMENT ( #81, #69, ( #288 ) ) ;
#233 = DIRECTION ( 'NONE',  ( 0.000000000000000000, 0.000000000000000000, 1.000000000000000000 ) ) ;
#234 = DESIGN_CONTEXT ( 'detailed design', #174, 'design' ) ;
#235 = DIRECTION ( 'NONE',  ( -1.000000000000000000, 0.000000000000000000, 0.000000000000000000 ) ) ;
#236 = COORDINATED_UNIVERSAL_TIME_OFFSET ( 1, 0, .AHEAD. ) ;
#237 = ORIENTED_EDGE ( 'NONE', *, *, #239, .T. ) ;
#238 = PERSON ( 'NEURÈENÝ', 'NEURÈENÝ', 'NEURÈENÝ', ('NEURÈENÝ'), ('NEURÈENÝ'), ('NEURÈENÝ') ) ;
#239 = EDGE_CURVE ( 'NONE', #215, #93, #305, .T. ) ;
#240 = EDGE_LOOP ( 'NONE', ( #265, #291 ) ) ;
#241 = CC_DESIGN_APPROVAL ( #107, ( #122 ) ) ;
#242 = APPROVAL ( #8, 'NEURÈENÝ' ) ;
#243 = ORIENTED_EDGE ( 'NONE', *, *, #32, .F. ) ;
#244 = ORIENTED_EDGE ( 'NONE', *, *, #214, .F. ) ;
#245 = ORIENTED_EDGE ( 'NONE', *, *, #140, .F. ) ;
#246 = CC_DESIGN_APPROVAL ( #242, ( #165 ) ) ;
#247 = CARTESIAN_POINT ( 'NONE',  ( -1.250000000000000000, 0.000000000000000000, 2.199999999999993516 ) ) ;
#248 = ADVANCED_FACE ( 'NONE', ( #59 ), #264, .F. ) ;
#249 = CARTESIAN_POINT ( 'NONE',  ( 0.000000000000000000, 0.000000000000000000, 2.000000000000000000 ) ) ;
#250 = CC_DESIGN_APPROVAL ( #13, ( #288 ) ) ;
#251 = DATE_TIME_ROLE ( 'creation_date' ) ;
#252 = CYLINDRICAL_SURFACE ( 'NONE', #268, 2.500000000000000000 ) ;
#253 = DIRECTION ( 'NONE',  ( -0.000000000000000000, -0.000000000000000000, -1.000000000000000000 ) ) ;
#254 = PERSON_AND_ORGANIZATION ( #238, #52 ) ;
#255 = DIRECTION ( 'NONE',  ( -1.000000000000000000, 0.000000000000000000, 0.000000000000000000 ) ) ;
#256 = DIRECTION ( 'NONE',  ( 1.000000000000000000, 0.000000000000000000, -0.000000000000000000 ) ) ;
#257 = ADVANCED_FACE ( 'NONE', ( #67 ), #280, .T. ) ;
#258 = CARTESIAN_POINT ( 'NONE',  ( 1.450000000000000178, 0.000000000000000000, 2.199999999999993516 ) ) ;
#259 = CLOSED_SHELL ( 'NONE', ( #248, #132, #307, #95, #168, #156, #190, #257, #50 ) ) ;
#260 = DIRECTION ( 'NONE',  ( 1.000000000000000000, 0.000000000000000000, 0.000000000000000000 ) ) ;
#261 =( LENGTH_UNIT ( ) NAMED_UNIT ( * ) SI_UNIT ( .MILLI., .METRE. ) );
#262 = PERSON_AND_ORGANIZATION_ROLE ( 'design_supplier' ) ;
#263 = ORIENTED_EDGE ( 'NONE', *, *, #214, .T. ) ;
#264 = TOROIDAL_SURFACE ( 'NONE', #184, 1.450000000000000178, 0.2000000000000000111 ) ;
#265 = ORIENTED_EDGE ( 'NONE', *, *, #181, .F. ) ;
#266 = EDGE_CURVE ( 'NONE', #216, #40, #12, .T. ) ;
#267 = ORIENTED_EDGE ( 'NONE', *, *, #266, .T. ) ;
#268 = AXIS2_PLACEMENT_3D ( 'NONE', #126, #171, #271 ) ;
#269 = AXIS2_PLACEMENT_3D ( 'NONE', #112, #178, #255 ) ;
#270 = ORIENTED_EDGE ( 'NONE', *, *, #60, .T. ) ;
#271 = DIRECTION ( 'NONE',  ( -1.000000000000000000, 0.000000000000000000, 0.000000000000000000 ) ) ;
#272 = AXIS2_PLACEMENT_3D ( 'NONE', #229, #233, #157 ) ;
#273 = CARTESIAN_POINT ( 'NONE',  ( 0.000000000000000000, 0.000000000000000000, 102.0000000000000142 ) ) ;
#274 = FACE_OUTER_BOUND ( 'NONE', #37, .T. ) ;
#275 = COORDINATED_UNIVERSAL_TIME_OFFSET ( 1, 0, .AHEAD. ) ;
#276 = EDGE_CURVE ( 'NONE', #146, #147, #96, .T. ) ;
#277 = ORIENTED_EDGE ( 'NONE', *, *, #220, .T. ) ;
#278 = DATE_AND_TIME ( #45, #203 ) ;
#279 = CARTESIAN_POINT ( 'NONE',  ( -1.250000000000000000, 0.000000000000000000, 102.0000000000000142 ) ) ;
#280 = PLANE ( 'NONE',  #133 ) ;
#281 = DIRECTION ( 'NONE',  ( 1.000000000000000000, 0.000000000000000000, -0.000000000000000000 ) ) ;
#282 = EDGE_CURVE ( 'NONE', #73, #147, #306, .T. ) ;
#283 = LOCAL_TIME ( 14, 56, 43.00000000000000000, #207 ) ;
#284 = CIRCLE ( 'NONE', #158, 1.250000000000000000 ) ;
#285 = DIRECTION ( 'NONE',  ( 0.000000000000000000, 0.000000000000000000, 1.000000000000000000 ) ) ;
#286 = CARTESIAN_POINT ( 'NONE',  ( 0.000000000000000000, 0.000000000000000000, 2.199999999999993516 ) ) ;
#287 = DIRECTION ( 'NONE',  ( 1.000000000000000000, 0.000000000000000000, 0.000000000000000000 ) ) ;
#288 = SECURITY_CLASSIFICATION ( '', '', #201 ) ;
#289 = ORIENTED_EDGE ( 'NONE', *, *, #60, .F. ) ;
#290 = EDGE_CURVE ( 'NONE', #176, #215, #139, .T. ) ;
#291 = ORIENTED_EDGE ( 'NONE', *, *, #276, .F. ) ;
#292 = AXIS2_PLACEMENT_3D ( 'NONE', #138, #137, #44 ) ;
#293 = DIRECTION ( 'NONE',  ( 0.000000000000000000, 0.000000000000000000, 1.000000000000000000 ) ) ;
#294 = CARTESIAN_POINT ( 'NONE',  ( 0.000000000000000000, 0.000000000000000000, 2.000000000000000000 ) ) ;
#295 = FACE_OUTER_BOUND ( 'NONE', #191, .T. ) ;
#296 = AXIS2_PLACEMENT_3D ( 'NONE', #57, #224, #20 ) ;
#297 = LOCAL_TIME ( 14, 56, 43.00000000000000000, #163 ) ;
#298 = ORIENTED_EDGE ( 'NONE', *, *, #75, .T. ) ;
#299 = CC_DESIGN_PERSON_AND_ORGANIZATION_ASSIGNMENT ( #188, #129, ( #288 ) ) ;
#300 = PERSON_AND_ORGANIZATION ( #238, #52 ) ;
#301 = CARTESIAN_POINT ( 'NONE',  ( -2.500000000000000000, 0.000000000000000000, 0.000000000000000000 ) ) ;
#302 = PERSON_AND_ORGANIZATION_ROLE ( 'design_owner' ) ;
#303 = PLANE ( 'NONE',  #292 ) ;
#304 = AXIS2_PLACEMENT_3D ( 'NONE', #84, #91, #260 ) ;
#305 = LINE ( 'NONE', #279, #230 ) ;
#306 = LINE ( 'NONE', #47, #100 ) ;
#307 = ADVANCED_FACE ( 'NONE', ( #116 ), #208, .T. ) ;
ENDSEC;
END-ISO-10303-21;
