ISO-10303-21;
HEADER;
FILE_DESCRIPTION (( 'STEP AP203' ),
    '1' );
FILE_NAME ('991e.STEP',
    '2022-07-07T12:50:35',
    ( '' ),
    ( '' ),
    'SwSTEP 2.0',
    'SolidWorks 2019',
    '' );
FILE_SCHEMA (( 'CONFIG_CONTROL_DESIGN' ));
ENDSEC;

DATA;
#1 = APPLICATION_CONTEXT ( 'configuration controlled 3d designs of mechanical parts and assemblies' ) ;
#2 = TOROIDAL_SURFACE ( 'NONE', #180, 2.200000000000000178, 0.2000000000000000111 ) ;
#3 = PRODUCT_DEFINITION ( 'NEZNÁMÝ', '', #100, #137 ) ;
#4 = DIRECTION ( 'NONE',  ( -1.000000000000000000, 0.000000000000000000, 0.000000000000000000 ) ) ;
#5 = LINE ( 'NONE', #259, #26 ) ;
#6 = DIRECTION ( 'NONE',  ( 1.000000000000000000, 0.000000000000000000, 0.000000000000000000 ) ) ;
#7 = DIRECTION ( 'NONE',  ( 1.000000000000000000, 0.000000000000000000, 0.000000000000000000 ) ) ;
#8 = AXIS2_PLACEMENT_3D ( 'NONE', #278, #60, #253 ) ;
#9 = CALENDAR_DATE ( 2022, 7, 7 ) ;
#10 = FACE_BOUND ( 'NONE', #265, .T. ) ;
#11 = FACE_OUTER_BOUND ( 'NONE', #245, .T. ) ;
#12 = DIRECTION ( 'NONE',  ( 0.000000000000000000, 0.000000000000000000, 1.000000000000000000 ) ) ;
#13 = CARTESIAN_POINT ( 'NONE',  ( 0.000000000000000000, 0.000000000000000000, 503.0000000000000000 ) ) ;
#14 = CYLINDRICAL_SURFACE ( 'NONE', #98, 4.000000000000000000 ) ;
#15 = AXIS2_PLACEMENT_3D ( 'NONE', #196, #217, #197 ) ;
#16 =( GEOMETRIC_REPRESENTATION_CONTEXT ( 3 ) GLOBAL_UNCERTAINTY_ASSIGNED_CONTEXT ( ( #18 ) ) GLOBAL_UNIT_ASSIGNED_CONTEXT ( ( #141, #301, #212 ) ) REPRESENTATION_CONTEXT ( 'NONE', 'WORKASPACE' ) );
#17 = DIRECTION ( 'NONE',  ( 1.000000000000000000, 0.000000000000000000, 0.000000000000000000 ) ) ;
#18 = UNCERTAINTY_MEASURE_WITH_UNIT (LENGTH_MEASURE( 1.000000000000000082E-05 ), #141, 'distance_accuracy_value', 'NONE');
#19 = PERSON_AND_ORGANIZATION_ROLE ( 'classification_officer' ) ;
#20 = ORIENTED_EDGE ( 'NONE', *, *, #77, .F. ) ;
#21 = ORIENTED_EDGE ( 'NONE', *, *, #254, .F. ) ;
#22 = EDGE_CURVE ( 'NONE', #97, #130, #29, .T. ) ;
#23 = ORIENTED_EDGE ( 'NONE', *, *, #72, .F. ) ;
#24 = ORIENTED_EDGE ( 'NONE', *, *, #22, .T. ) ;
#25 = ADVANCED_FACE ( 'NONE', ( #174 ), #96, .T. ) ;
#26 = VECTOR ( 'NONE', #209, 1000.000000000000000 ) ;
#27 = ORIENTED_EDGE ( 'NONE', *, *, #251, .F. ) ;
#28 = CC_DESIGN_PERSON_AND_ORGANIZATION_ASSIGNMENT ( #240, #19, ( #242 ) ) ;
#29 = CIRCLE ( 'NONE', #288, 2.000000000000000000 ) ;
#30 = APPROVAL_PERSON_ORGANIZATION ( #189, #157, #91 ) ;
#31 = FACE_OUTER_BOUND ( 'NONE', #149, .T. ) ;
#32 = CARTESIAN_POINT ( 'NONE',  ( 2.200000000000000178, 0.000000000000000000, 2.999999999999990674 ) ) ;
#33 = CARTESIAN_POINT ( 'NONE',  ( 4.000000000000000000, 4.898587196589412829E-16, 3.000000000000000000 ) ) ;
#34 = DIRECTION ( 'NONE',  ( 1.000000000000000000, 0.000000000000000000, 0.000000000000000000 ) ) ;
#35 = CARTESIAN_POINT ( 'NONE',  ( 0.000000000000000000, 0.000000000000000000, 3.000000000000000000 ) ) ;
#36 = CIRCLE ( 'NONE', #204, 2.000000000000000000 ) ;
#37 = LINE ( 'NONE', #113, #229 ) ;
#38 = CARTESIAN_POINT ( 'NONE',  ( 0.000000000000000000, 0.000000000000000000, 0.000000000000000000 ) ) ;
#39 = DATE_AND_TIME ( #296, #138 ) ;
#40 = CARTESIAN_POINT ( 'NONE',  ( 0.000000000000000000, 0.000000000000000000, 3.199999999999980638 ) ) ;
#41 = CARTESIAN_POINT ( 'NONE',  ( -4.000000000000000000, 0.000000000000000000, 0.000000000000000000 ) ) ;
#42 = DIRECTION ( 'NONE',  ( -1.000000000000000000, 0.000000000000000000, 0.000000000000000000 ) ) ;
#43 = CC_DESIGN_APPROVAL ( #157, ( #3 ) ) ;
#44 = DATE_AND_TIME ( #266, #73 ) ;
#45 = EDGE_LOOP ( 'NONE', ( #213, #262 ) ) ;
#46 = COORDINATED_UNIVERSAL_TIME_OFFSET ( 1, 0, .AHEAD. ) ;
#47 = DIRECTION ( 'NONE',  ( -0.000000000000000000, -0.000000000000000000, -1.000000000000000000 ) ) ;
#48 = AXIS2_PLACEMENT_3D ( 'NONE', #194, #192, #135 ) ;
#49 = CALENDAR_DATE ( 2022, 7, 7 ) ;
#50 = ORIENTED_EDGE ( 'NONE', *, *, #101, .T. ) ;
#51 = EDGE_LOOP ( 'NONE', ( #153, #269, #23, #224 ) ) ;
#52 = ADVANCED_FACE ( 'NONE', ( #76 ), #144, .T. ) ;
#53 = AXIS2_PLACEMENT_3D ( 'NONE', #57, #160, #109 ) ;
#54 = CC_DESIGN_PERSON_AND_ORGANIZATION_ASSIGNMENT ( #173, #243, ( #100 ) ) ;
#55 = CARTESIAN_POINT ( 'NONE',  ( 2.000000000000000000, 2.449293598294706414E-16, 503.0000000000000000 ) ) ;
#56 = CIRCLE ( 'NONE', #267, 2.200000000000000178 ) ;
#57 = CARTESIAN_POINT ( 'NONE',  ( 0.000000000000000000, 0.000000000000000000, 3.000000000000000000 ) ) ;
#58 = CARTESIAN_POINT ( 'NONE',  ( -2.200000000000000178, 2.694222958124177006E-16, 2.999999999999990674 ) ) ;
#59 = PERSON_AND_ORGANIZATION ( #184, #200 ) ;
#60 = DIRECTION ( 'NONE',  ( 0.000000000000000000, 0.000000000000000000, 1.000000000000000000 ) ) ;
#61 = ADVANCED_FACE ( 'NONE', ( #235 ), #14, .T. ) ;
#62 = DIRECTION ( 'NONE',  ( 0.000000000000000000, 0.000000000000000000, 1.000000000000000000 ) ) ;
#63 = CARTESIAN_POINT ( 'NONE',  ( 0.000000000000000000, 0.000000000000000000, 3.000000000000000000 ) ) ;
#64 = CIRCLE ( 'NONE', #273, 2.000000000000000000 ) ;
#65 = PRODUCT_RELATED_PRODUCT_CATEGORY ( 'detail', '', ( #86 ) ) ;
#66 = CARTESIAN_POINT ( 'NONE',  ( 0.000000000000000000, 0.000000000000000000, 0.000000000000000000 ) ) ;
#67 = DIRECTION ( 'NONE',  ( 1.000000000000000000, 0.000000000000000000, 0.000000000000000000 ) ) ;
#68 = DIRECTION ( 'NONE',  ( 0.000000000000000000, 0.000000000000000000, 1.000000000000000000 ) ) ;
#69 = ORIENTED_EDGE ( 'NONE', *, *, #102, .T. ) ;
#70 = APPROVAL_DATE_TIME ( #44, #90 ) ;
#71 = CARTESIAN_POINT ( 'NONE',  ( 0.000000000000000000, 0.000000000000000000, 3.000000000000000000 ) ) ;
#72 = EDGE_CURVE ( 'NONE', #128, #122, #56, .T. ) ;
#73 = LOCAL_TIME ( 14, 50, 35.00000000000000000, #216 ) ;
#74 = LOCAL_TIME ( 14, 50, 35.00000000000000000, #46 ) ;
#75 = SECURITY_CLASSIFICATION_LEVEL ( 'unclassified' ) ;
#76 = FACE_OUTER_BOUND ( 'NONE', #195, .T. ) ;
#77 = EDGE_CURVE ( 'NONE', #302, #289, #5, .T. ) ;
#78 = DATE_AND_TIME ( #49, #74 ) ;
#79 = ADVANCED_FACE ( 'NONE', ( #164 ), #298, .F. ) ;
#80 = ORIENTED_EDGE ( 'NONE', *, *, #244, .T. ) ;
#81 = CC_DESIGN_APPROVAL ( #183, ( #100 ) ) ;
#82 = DIRECTION ( 'NONE',  ( 0.000000000000000000, -1.000000000000000000, 0.000000000000000000 ) ) ;
#83 = CC_DESIGN_PERSON_AND_ORGANIZATION_ASSIGNMENT ( #306, #125, ( #100 ) ) ;
#84 = AXIS2_PLACEMENT_3D ( 'NONE', #162, #12, #232 ) ;
#85 = FACE_OUTER_BOUND ( 'NONE', #172, .T. ) ;
#86 = PRODUCT ( '991e', '991e', '', ( #208 ) ) ;
#87 = LINE ( 'NONE', #55, #225 ) ;
#88 = EDGE_CURVE ( 'NONE', #303, #302, #270, .T. ) ;
#89 = LINE ( 'NONE', #190, #281 ) ;
#90 = APPROVAL ( #99, 'NEURÈENÝ' ) ;
#91 = APPROVAL_ROLE ( '' ) ;
#92 = PLANE ( 'NONE',  #236 ) ;
#93 = CIRCLE ( 'NONE', #299, 0.2000000000000000944 ) ;
#94 = PERSON_AND_ORGANIZATION ( #184, #200 ) ;
#95 = VERTEX_POINT ( 'NONE', #140 ) ;
#96 = PLANE ( 'NONE',  #15 ) ;
#97 = VERTEX_POINT ( 'NONE', #168 ) ;
#98 = AXIS2_PLACEMENT_3D ( 'NONE', #71, #300, #42 ) ;
#99 = APPROVAL_STATUS ( 'not_yet_approved' ) ;
#100 = PRODUCT_DEFINITION_FORMATION_WITH_SPECIFIED_SOURCE ( 'LIBOVOLNÝ', '', #86, .NOT_KNOWN. ) ;
#101 = EDGE_CURVE ( 'NONE', #95, #284, #156, .T. ) ;
#102 = EDGE_CURVE ( 'NONE', #268, #289, #290, .T. ) ;
#103 = EDGE_LOOP ( 'NONE', ( #148, #218, #69, #20 ) ) ;
#104 = CC_DESIGN_SECURITY_CLASSIFICATION ( #242, ( #100 ) ) ;
#105 = FACE_OUTER_BOUND ( 'NONE', #51, .T. ) ;
#106 = ADVANCED_FACE ( 'NONE', ( #10, #227 ), #92, .T. ) ;
#107 = EDGE_CURVE ( 'NONE', #95, #130, #87, .T. ) ;
#108 = APPLICATION_CONTEXT ( 'configuration controlled 3d designs of mechanical parts and assemblies' ) ;
#109 = DIRECTION ( 'NONE',  ( 1.000000000000000000, 0.000000000000000000, 0.000000000000000000 ) ) ;
#110 = AXIS2_PLACEMENT_3D ( 'NONE', #112, #193, #34 ) ;
#111 = APPLICATION_PROTOCOL_DEFINITION ( 'international standard', 'config_control_design', 1994, #108 ) ;
#112 = CARTESIAN_POINT ( 'NONE',  ( 0.000000000000000000, 0.000000000000000000, 503.0000000000000000 ) ) ;
#113 = CARTESIAN_POINT ( 'NONE',  ( 4.000000000000000000, 4.898587196589412829E-16, 3.000000000000000000 ) ) ;
#114 = CARTESIAN_POINT ( 'NONE',  ( 2.000000000000000000, 2.449293598294706414E-16, 3.199999999999980638 ) ) ;
#115 = APPLICATION_PROTOCOL_DEFINITION ( 'international standard', 'config_control_design', 1994, #1 ) ;
#116 = CYLINDRICAL_SURFACE ( 'NONE', #191, 2.000000000000000000 ) ;
#117 = DATE_TIME_ROLE ( 'creation_date' ) ;
#118 = ORIENTED_EDGE ( 'NONE', *, *, #244, .F. ) ;
#119 = CLOSED_SHELL ( 'NONE', ( #202, #52, #61, #177, #106, #79, #129, #25, #271 ) ) ;
#120 = AXIS2_PLACEMENT_3D ( 'NONE', #175, #47, #241 ) ;
#121 = DIRECTION ( 'NONE',  ( 0.000000000000000000, 0.000000000000000000, 1.000000000000000000 ) ) ;
#122 = VERTEX_POINT ( 'NONE', #58 ) ;
#123 = APPROVAL_DATE_TIME ( #220, #183 ) ;
#124 = ORIENTED_EDGE ( 'NONE', *, *, #254, .T. ) ;
#125 = PERSON_AND_ORGANIZATION_ROLE ( 'creator' ) ;
#126 = ORIENTED_EDGE ( 'NONE', *, *, #107, .T. ) ;
#127 = AXIS2_PLACEMENT_3D ( 'NONE', #66, #68, #237 ) ;
#128 = VERTEX_POINT ( 'NONE', #32 ) ;
#129 = ADVANCED_FACE ( 'NONE', ( #85 ), #116, .T. ) ;
#130 = VERTEX_POINT ( 'NONE', #114 ) ;
#131 = ORIENTED_EDGE ( 'NONE', *, *, #150, .T. ) ;
#132 = AXIS2_PLACEMENT_3D ( 'NONE', #38, #205, #255 ) ;
#133 = DIRECTION ( 'NONE',  ( -0.000000000000000000, -0.000000000000000000, -1.000000000000000000 ) ) ;
#134 = DIRECTION ( 'NONE',  ( 0.000000000000000000, 0.000000000000000000, 1.000000000000000000 ) ) ;
#135 = DIRECTION ( 'NONE',  ( 1.000000000000000000, 0.000000000000000000, 0.000000000000000000 ) ) ;
#136 = CARTESIAN_POINT ( 'NONE',  ( 0.000000000000000000, 0.000000000000000000, 503.0000000000000000 ) ) ;
#137 = DESIGN_CONTEXT ( 'detailed design', #108, 'design' ) ;
#138 = LOCAL_TIME ( 14, 50, 35.00000000000000000, #260 ) ;
#139 = DIRECTION ( 'NONE',  ( 1.000000000000000000, 0.000000000000000000, 0.000000000000000000 ) ) ;
#140 = CARTESIAN_POINT ( 'NONE',  ( 2.000000000000000000, 2.449293598294706414E-16, 503.0000000000000000 ) ) ;
#141 =( LENGTH_UNIT ( ) NAMED_UNIT ( * ) SI_UNIT ( .MILLI., .METRE. ) );
#142 = DIRECTION ( 'NONE',  ( 0.000000000000000000, 0.000000000000000000, 1.000000000000000000 ) ) ;
#143 = COORDINATED_UNIVERSAL_TIME_OFFSET ( 1, 0, .AHEAD. ) ;
#144 = CYLINDRICAL_SURFACE ( 'NONE', #120, 2.000000000000000000 ) ;
#145 = CALENDAR_DATE ( 2022, 7, 7 ) ;
#146 = CARTESIAN_POINT ( 'NONE',  ( 0.000000000000000000, 0.000000000000000000, 3.000000000000000000 ) ) ;
#147 = TOROIDAL_SURFACE ( 'NONE', #48, 2.200000000000000178, 0.2000000000000000111 ) ;
#148 = ORIENTED_EDGE ( 'NONE', *, *, #88, .F. ) ;
#149 = EDGE_LOOP ( 'NONE', ( #179, #27, #165, #154 ) ) ;
#150 = EDGE_CURVE ( 'NONE', #122, #128, #166, .T. ) ;
#151 = SHAPE_DEFINITION_REPRESENTATION ( #181, #234 ) ;
#152 = DATE_TIME_ROLE ( 'classification_date' ) ;
#153 = ORIENTED_EDGE ( 'NONE', *, *, #22, .F. ) ;
#154 = ORIENTED_EDGE ( 'NONE', *, *, #203, .T. ) ;
#155 = CC_DESIGN_DATE_AND_TIME_ASSIGNMENT ( #78, #152, ( #242 ) ) ;
#156 = CIRCLE ( 'NONE', #110, 2.000000000000000000 ) ;
#157 = APPROVAL ( #258, 'NEURÈENÝ' ) ;
#158 = DIRECTION ( 'NONE',  ( -0.000000000000000000, -0.000000000000000000, -1.000000000000000000 ) ) ;
#159 = CIRCLE ( 'NONE', #186, 0.2000000000000000944 ) ;
#160 = DIRECTION ( 'NONE',  ( 0.000000000000000000, 0.000000000000000000, 1.000000000000000000 ) ) ;
#161 = CARTESIAN_POINT ( 'NONE',  ( 4.000000000000000000, 4.898587196589412829E-16, 0.000000000000000000 ) ) ;
#162 = CARTESIAN_POINT ( 'NONE',  ( 0.000000000000000000, 0.000000000000000000, 0.000000000000000000 ) ) ;
#163 = APPROVAL_STATUS ( 'not_yet_approved' ) ;
#164 = FACE_OUTER_BOUND ( 'NONE', #45, .T. ) ;
#165 = ORIENTED_EDGE ( 'NONE', *, *, #77, .T. ) ;
#166 = CIRCLE ( 'NONE', #247, 2.200000000000000178 ) ;
#167 = PERSON_AND_ORGANIZATION_ROLE ( 'design_owner' ) ;
#168 = CARTESIAN_POINT ( 'NONE',  ( -2.000000000000000000, 0.000000000000000000, 3.199999999999980638 ) ) ;
#169 = EDGE_CURVE ( 'NONE', #97, #122, #93, .T. ) ;
#170 = DATE_AND_TIME ( #145, #307 ) ;
#171 = EDGE_LOOP ( 'NONE', ( #239, #50 ) ) ;
#172 = EDGE_LOOP ( 'NONE', ( #223, #287, #80, #24 ) ) ;
#173 = PERSON_AND_ORGANIZATION ( #184, #200 ) ;
#174 = FACE_OUTER_BOUND ( 'NONE', #171, .T. ) ;
#175 = CARTESIAN_POINT ( 'NONE',  ( 0.000000000000000000, 0.000000000000000000, 503.0000000000000000 ) ) ;
#176 = PERSON_AND_ORGANIZATION ( #184, #200 ) ;
#177 = ADVANCED_FACE ( 'NONE', ( #31 ), #272, .T. ) ;
#178 = ORIENTED_EDGE ( 'NONE', *, *, #88, .T. ) ;
#179 = ORIENTED_EDGE ( 'NONE', *, *, #304, .F. ) ;
#180 = AXIS2_PLACEMENT_3D ( 'NONE', #275, #228, #7 ) ;
#181 = PRODUCT_DEFINITION_SHAPE ( 'NONE', 'NONE',  #3 ) ;
#182 = APPROVAL_DATE_TIME ( #170, #157 ) ;
#183 = APPROVAL ( #163, 'NEURÈENÝ' ) ;
#184 = PERSON ( 'NEURÈENÝ', 'NEURÈENÝ', 'NEURÈENÝ', ('NEURÈENÝ'), ('NEURÈENÝ'), ('NEURÈENÝ') ) ;
#185 = DIRECTION ( 'NONE',  ( -0.000000000000000000, -0.000000000000000000, -1.000000000000000000 ) ) ;
#186 = AXIS2_PLACEMENT_3D ( 'NONE', #291, #82, #297 ) ;
#187 = CARTESIAN_POINT ( 'NONE',  ( 0.000000000000000000, 0.000000000000000000, 3.000000000000000000 ) ) ;
#188 = DIRECTION ( 'NONE',  ( -1.000000000000000000, 0.000000000000000000, 0.000000000000000000 ) ) ;
#189 = PERSON_AND_ORGANIZATION ( #184, #200 ) ;
#190 = CARTESIAN_POINT ( 'NONE',  ( -2.000000000000000000, 0.000000000000000000, 503.0000000000000000 ) ) ;
#191 = AXIS2_PLACEMENT_3D ( 'NONE', #136, #280, #4 ) ;
#192 = DIRECTION ( 'NONE',  ( 0.000000000000000000, 0.000000000000000000, 1.000000000000000000 ) ) ;
#193 = DIRECTION ( 'NONE',  ( 0.000000000000000000, 0.000000000000000000, 1.000000000000000000 ) ) ;
#194 = CARTESIAN_POINT ( 'NONE',  ( 0.000000000000000000, 0.000000000000000000, 3.199999999999980638 ) ) ;
#195 = EDGE_LOOP ( 'NONE', ( #264, #126, #124, #118 ) ) ;
#196 = CARTESIAN_POINT ( 'NONE',  ( 0.000000000000000000, 0.000000000000000000, 503.0000000000000000 ) ) ;
#197 = DIRECTION ( 'NONE',  ( 1.000000000000000000, 0.000000000000000000, -0.000000000000000000 ) ) ;
#198 = CIRCLE ( 'NONE', #53, 4.000000000000000000 ) ;
#199 = APPROVAL_ROLE ( '' ) ;
#200 = ORGANIZATION ( 'NEURÈENÝ', 'NEURÈENÝ', '' ) ;
#201 = CC_DESIGN_PERSON_AND_ORGANIZATION_ASSIGNMENT ( #294, #277, ( #3 ) ) ;
#202 = ADVANCED_FACE ( 'NONE', ( #105 ), #2, .F. ) ;
#203 = EDGE_CURVE ( 'NONE', #289, #268, #252, .T. ) ;
#204 = AXIS2_PLACEMENT_3D ( 'NONE', #231, #62, #139 ) ;
#205 = DIRECTION ( 'NONE',  ( 0.000000000000000000, 0.000000000000000000, 1.000000000000000000 ) ) ;
#206 = DIRECTION ( 'NONE',  ( 1.000000000000000000, 0.000000000000000000, -0.000000000000000000 ) ) ;
#207 = DIRECTION ( 'NONE',  ( -1.000000000000000000, 1.224646799147353207E-16, 0.000000000000000000 ) ) ;
#208 = MECHANICAL_CONTEXT ( 'NONE', #1, 'mechanical' ) ;
#209 = DIRECTION ( 'NONE',  ( -0.000000000000000000, -0.000000000000000000, -1.000000000000000000 ) ) ;
#210 = CC_DESIGN_DATE_AND_TIME_ASSIGNMENT ( #39, #117, ( #3 ) ) ;
#211 = MANIFOLD_SOLID_BREP ( 'Zaoblit1', #119 ) ;
#212 =( NAMED_UNIT ( * ) SI_UNIT ( $, .STERADIAN. ) SOLID_ANGLE_UNIT ( ) );
#213 = ORIENTED_EDGE ( 'NONE', *, *, #203, .F. ) ;
#214 = CARTESIAN_POINT ( 'NONE',  ( -2.000000000000000000, 0.000000000000000000, 503.0000000000000000 ) ) ;
#215 = ORIENTED_EDGE ( 'NONE', *, *, #233, .T. ) ;
#216 = COORDINATED_UNIVERSAL_TIME_OFFSET ( 1, 0, .AHEAD. ) ;
#217 = DIRECTION ( 'NONE',  ( 0.000000000000000000, 0.000000000000000000, 1.000000000000000000 ) ) ;
#218 = ORIENTED_EDGE ( 'NONE', *, *, #304, .T. ) ;
#219 = LOCAL_TIME ( 14, 50, 35.00000000000000000, #256 ) ;
#220 = DATE_AND_TIME ( #9, #219 ) ;
#221 = EDGE_LOOP ( 'NONE', ( #282, #178 ) ) ;
#222 = APPROVAL_PERSON_ORGANIZATION ( #176, #90, #199 ) ;
#223 = ORIENTED_EDGE ( 'NONE', *, *, #107, .F. ) ;
#224 = ORIENTED_EDGE ( 'NONE', *, *, #233, .F. ) ;
#225 = VECTOR ( 'NONE', #292, 1000.000000000000000 ) ;
#226 = DIRECTION ( 'NONE',  ( 1.000000000000000000, 0.000000000000000000, 0.000000000000000000 ) ) ;
#227 = FACE_OUTER_BOUND ( 'NONE', #221, .T. ) ;
#228 = DIRECTION ( 'NONE',  ( 0.000000000000000000, 0.000000000000000000, 1.000000000000000000 ) ) ;
#229 = VECTOR ( 'NONE', #279, 1000.000000000000000 ) ;
#230 = DIRECTION ( 'NONE',  ( 1.224646799147353207E-16, 1.000000000000000000, -0.000000000000000000 ) ) ;
#231 = CARTESIAN_POINT ( 'NONE',  ( 0.000000000000000000, 0.000000000000000000, 3.199999999999980638 ) ) ;
#232 = DIRECTION ( 'NONE',  ( 1.000000000000000000, 0.000000000000000000, -0.000000000000000000 ) ) ;
#233 = EDGE_CURVE ( 'NONE', #130, #128, #159, .T. ) ;
#234 = ADVANCED_BREP_SHAPE_REPRESENTATION ( '991e', ( #211, #127 ), #16 ) ;
#235 = FACE_OUTER_BOUND ( 'NONE', #103, .T. ) ;
#236 = AXIS2_PLACEMENT_3D ( 'NONE', #35, #142, #206 ) ;
#237 = DIRECTION ( 'NONE',  ( 1.000000000000000000, 0.000000000000000000, 0.000000000000000000 ) ) ;
#238 = DIRECTION ( 'NONE',  ( -0.000000000000000000, -0.000000000000000000, -1.000000000000000000 ) ) ;
#239 = ORIENTED_EDGE ( 'NONE', *, *, #276, .T. ) ;
#240 = PERSON_AND_ORGANIZATION ( #184, #200 ) ;
#241 = DIRECTION ( 'NONE',  ( -1.000000000000000000, 0.000000000000000000, 0.000000000000000000 ) ) ;
#242 = SECURITY_CLASSIFICATION ( '', '', #75 ) ;
#243 = PERSON_AND_ORGANIZATION_ROLE ( 'design_supplier' ) ;
#244 = EDGE_CURVE ( 'NONE', #284, #97, #89, .T. ) ;
#245 = EDGE_LOOP ( 'NONE', ( #286, #21, #215, #248 ) ) ;
#246 = AXIS2_PLACEMENT_3D ( 'NONE', #257, #134, #226 ) ;
#247 = AXIS2_PLACEMENT_3D ( 'NONE', #63, #158, #250 ) ;
#248 = ORIENTED_EDGE ( 'NONE', *, *, #150, .F. ) ;
#249 = CC_DESIGN_PERSON_AND_ORGANIZATION_ASSIGNMENT ( #94, #167, ( #86 ) ) ;
#250 = DIRECTION ( 'NONE',  ( 1.000000000000000000, 0.000000000000000000, 0.000000000000000000 ) ) ;
#251 = EDGE_CURVE ( 'NONE', #302, #303, #198, .T. ) ;
#252 = CIRCLE ( 'NONE', #8, 4.000000000000000000 ) ;
#253 = DIRECTION ( 'NONE',  ( 1.000000000000000000, 0.000000000000000000, 0.000000000000000000 ) ) ;
#254 = EDGE_CURVE ( 'NONE', #130, #97, #36, .T. ) ;
#255 = DIRECTION ( 'NONE',  ( 1.000000000000000000, 0.000000000000000000, 0.000000000000000000 ) ) ;
#256 = COORDINATED_UNIVERSAL_TIME_OFFSET ( 1, 0, .AHEAD. ) ;
#257 = CARTESIAN_POINT ( 'NONE',  ( 0.000000000000000000, 0.000000000000000000, 3.000000000000000000 ) ) ;
#258 = APPROVAL_STATUS ( 'not_yet_approved' ) ;
#259 = CARTESIAN_POINT ( 'NONE',  ( -4.000000000000000000, 0.000000000000000000, 3.000000000000000000 ) ) ;
#260 = COORDINATED_UNIVERSAL_TIME_OFFSET ( 1, 0, .AHEAD. ) ;
#261 = ORIENTED_EDGE ( 'NONE', *, *, #72, .T. ) ;
#262 = ORIENTED_EDGE ( 'NONE', *, *, #102, .F. ) ;
#263 = CC_DESIGN_APPROVAL ( #90, ( #242 ) ) ;
#264 = ORIENTED_EDGE ( 'NONE', *, *, #101, .F. ) ;
#265 = EDGE_LOOP ( 'NONE', ( #261, #131 ) ) ;
#266 = CALENDAR_DATE ( 2022, 7, 7 ) ;
#267 = AXIS2_PLACEMENT_3D ( 'NONE', #146, #238, #17 ) ;
#268 = VERTEX_POINT ( 'NONE', #161 ) ;
#269 = ORIENTED_EDGE ( 'NONE', *, *, #169, .T. ) ;
#270 = CIRCLE ( 'NONE', #246, 4.000000000000000000 ) ;
#271 = ADVANCED_FACE ( 'NONE', ( #11 ), #147, .F. ) ;
#272 = CYLINDRICAL_SURFACE ( 'NONE', #305, 4.000000000000000000 ) ;
#273 = AXIS2_PLACEMENT_3D ( 'NONE', #13, #121, #6 ) ;
#274 = APPROVAL_ROLE ( '' ) ;
#275 = CARTESIAN_POINT ( 'NONE',  ( 0.000000000000000000, 0.000000000000000000, 3.199999999999980638 ) ) ;
#276 = EDGE_CURVE ( 'NONE', #284, #95, #64, .T. ) ;
#277 = PERSON_AND_ORGANIZATION_ROLE ( 'creator' ) ;
#278 = CARTESIAN_POINT ( 'NONE',  ( 0.000000000000000000, 0.000000000000000000, 0.000000000000000000 ) ) ;
#279 = DIRECTION ( 'NONE',  ( -0.000000000000000000, -0.000000000000000000, -1.000000000000000000 ) ) ;
#280 = DIRECTION ( 'NONE',  ( -0.000000000000000000, -0.000000000000000000, -1.000000000000000000 ) ) ;
#281 = VECTOR ( 'NONE', #185, 1000.000000000000000 ) ;
#282 = ORIENTED_EDGE ( 'NONE', *, *, #251, .T. ) ;
#283 = CARTESIAN_POINT ( 'NONE',  ( -4.000000000000000000, 0.000000000000000000, 3.000000000000000000 ) ) ;
#284 = VERTEX_POINT ( 'NONE', #214 ) ;
#285 = DIRECTION ( 'NONE',  ( 0.000000000000000000, 0.000000000000000000, 1.000000000000000000 ) ) ;
#286 = ORIENTED_EDGE ( 'NONE', *, *, #169, .F. ) ;
#287 = ORIENTED_EDGE ( 'NONE', *, *, #276, .F. ) ;
#288 = AXIS2_PLACEMENT_3D ( 'NONE', #40, #285, #67 ) ;
#289 = VERTEX_POINT ( 'NONE', #41 ) ;
#290 = CIRCLE ( 'NONE', #132, 4.000000000000000000 ) ;
#291 = CARTESIAN_POINT ( 'NONE',  ( 2.200000000000000178, 0.000000000000000000, 3.199999999999980638 ) ) ;
#292 = DIRECTION ( 'NONE',  ( -0.000000000000000000, -0.000000000000000000, -1.000000000000000000 ) ) ;
#293 = APPROVAL_PERSON_ORGANIZATION ( #59, #183, #274 ) ;
#294 = PERSON_AND_ORGANIZATION ( #184, #200 ) ;
#295 = CARTESIAN_POINT ( 'NONE',  ( -2.200000000000000178, 2.694222958124177006E-16, 3.199999999999980638 ) ) ;
#296 = CALENDAR_DATE ( 2022, 7, 7 ) ;
#297 = DIRECTION ( 'NONE',  ( 0.000000000000000000, 0.000000000000000000, -1.000000000000000000 ) ) ;
#298 = PLANE ( 'NONE',  #84 ) ;
#299 = AXIS2_PLACEMENT_3D ( 'NONE', #295, #230, #207 ) ;
#300 = DIRECTION ( 'NONE',  ( -0.000000000000000000, -0.000000000000000000, -1.000000000000000000 ) ) ;
#301 =( NAMED_UNIT ( * ) PLANE_ANGLE_UNIT ( ) SI_UNIT ( $, .RADIAN. ) );
#302 = VERTEX_POINT ( 'NONE', #283 ) ;
#303 = VERTEX_POINT ( 'NONE', #33 ) ;
#304 = EDGE_CURVE ( 'NONE', #303, #268, #37, .T. ) ;
#305 = AXIS2_PLACEMENT_3D ( 'NONE', #187, #133, #188 ) ;
#306 = PERSON_AND_ORGANIZATION ( #184, #200 ) ;
#307 = LOCAL_TIME ( 14, 50, 35.00000000000000000, #143 ) ;
ENDSEC;
END-ISO-10303-21;
