ISO-10303-21;
HEADER;
FILE_DESCRIPTION (( 'STEP AP203' ),
    '1' );
FILE_NAME ('a1fc.STEP',
    '2022-07-07T12:57:52',
    ( '' ),
    ( '' ),
    'SwSTEP 2.0',
    'SolidWorks 2019',
    '' );
FILE_SCHEMA (( 'CONFIG_CONTROL_DESIGN' ));
ENDSEC;

DATA;
#1 = PLANE ( 'NONE',  #58 ) ;
#2 = ADVANCED_FACE ( 'NONE', ( #16 ), #67, .T. ) ;
#3 = AXIS2_PLACEMENT_3D ( 'NONE', #139, #118, #254 ) ;
#4 = DIRECTION ( 'NONE',  ( 0.000000000000000000, 0.000000000000000000, 1.000000000000000000 ) ) ;
#5 = VECTOR ( 'NONE', #122, 1000.000000000000000 ) ;
#6 = PERSON_AND_ORGANIZATION ( #72, #113 ) ;
#7 = CYLINDRICAL_SURFACE ( 'NONE', #153, 2.000000000000000000 ) ;
#8 = VERTEX_POINT ( 'NONE', #193 ) ;
#9 = CC_DESIGN_PERSON_AND_ORGANIZATION_ASSIGNMENT ( #45, #23, ( #112 ) ) ;
#10 = VERTEX_POINT ( 'NONE', #212 ) ;
#11 = PRODUCT_RELATED_PRODUCT_CATEGORY ( 'detail', '', ( #159 ) ) ;
#12 = FACE_OUTER_BOUND ( 'NONE', #149, .T. ) ;
#13 = AXIS2_PLACEMENT_3D ( 'NONE', #110, #82, #147 ) ;
#14 = ORIENTED_EDGE ( 'NONE', *, *, #85, .F. ) ;
#15 = APPROVAL_ROLE ( '' ) ;
#16 = FACE_OUTER_BOUND ( 'NONE', #298, .T. ) ;
#17 = CC_DESIGN_APPROVAL ( #165, ( #166 ) ) ;
#18 = CC_DESIGN_PERSON_AND_ORGANIZATION_ASSIGNMENT ( #211, #95, ( #159 ) ) ;
#19 = PLANE ( 'NONE',  #229 ) ;
#20 = EDGE_CURVE ( 'NONE', #280, #172, #214, .T. ) ;
#21 = CARTESIAN_POINT ( 'NONE',  ( 0.000000000000000000, 0.000000000000000000, 2.000000000000000000 ) ) ;
#22 = DIRECTION ( 'NONE',  ( 1.000000000000000000, 0.000000000000000000, 0.000000000000000000 ) ) ;
#23 = PERSON_AND_ORGANIZATION_ROLE ( 'creator' ) ;
#24 = CIRCLE ( 'NONE', #143, 2.000000000000000000 ) ;
#25 = DIRECTION ( 'NONE',  ( -1.000000000000000000, 1.224646799147353207E-16, 0.000000000000000000 ) ) ;
#26 = CARTESIAN_POINT ( 'NONE',  ( -2.000000000000000000, 0.000000000000000000, 0.000000000000000000 ) ) ;
#27 = DIRECTION ( 'NONE',  ( -1.000000000000000000, 0.000000000000000000, 0.000000000000000000 ) ) ;
#28 = DIRECTION ( 'NONE',  ( -0.000000000000000000, -0.000000000000000000, -1.000000000000000000 ) ) ;
#29 = LOCAL_TIME ( 14, 57, 52.00000000000000000, #54 ) ;
#30 = EDGE_CURVE ( 'NONE', #130, #172, #273, .T. ) ;
#31 = PERSON_AND_ORGANIZATION_ROLE ( 'classification_officer' ) ;
#32 = ORIENTED_EDGE ( 'NONE', *, *, #30, .T. ) ;
#33 = PRODUCT_DEFINITION_FORMATION_WITH_SPECIFIED_SOURCE ( 'LIBOVOLNÝ', '', #159, .NOT_KNOWN. ) ;
#34 = CARTESIAN_POINT ( 'NONE',  ( 0.000000000000000000, 0.000000000000000000, 0.000000000000000000 ) ) ;
#35 = EDGE_LOOP ( 'NONE', ( #70, #62, #179, #94 ) ) ;
#36 = CIRCLE ( 'NONE', #180, 1.100000000000000089 ) ;
#37 = APPROVAL_PERSON_ORGANIZATION ( #282, #56, #276 ) ;
#38 = ORIENTED_EDGE ( 'NONE', *, *, #39, .F. ) ;
#39 = EDGE_CURVE ( 'NONE', #150, #88, #206, .T. ) ;
#40 = CARTESIAN_POINT ( 'NONE',  ( 0.000000000000000000, 0.000000000000000000, 127.0000000000000000 ) ) ;
#41 = MANIFOLD_SOLID_BREP ( 'Zaoblit1', #163 ) ;
#42 = EDGE_CURVE ( 'NONE', #207, #280, #137, .T. ) ;
#43 = ORIENTED_EDGE ( 'NONE', *, *, #85, .T. ) ;
#44 = CIRCLE ( 'NONE', #91, 2.000000000000000000 ) ;
#45 = PERSON_AND_ORGANIZATION ( #72, #113 ) ;
#46 = DIRECTION ( 'NONE',  ( 1.000000000000000000, 0.000000000000000000, -0.000000000000000000 ) ) ;
#47 = MECHANICAL_CONTEXT ( 'NONE', #250, 'mechanical' ) ;
#48 = CARTESIAN_POINT ( 'NONE',  ( -1.100000000000000089, 0.000000000000000000, 127.0000000000000000 ) ) ;
#49 = EDGE_CURVE ( 'NONE', #280, #207, #36, .T. ) ;
#50 = AXIS2_PLACEMENT_3D ( 'NONE', #142, #213, #25 ) ;
#51 = APPLICATION_PROTOCOL_DEFINITION ( 'international standard', 'config_control_design', 1994, #250 ) ;
#52 = CARTESIAN_POINT ( 'NONE',  ( 0.000000000000000000, 0.000000000000000000, 127.0000000000000000 ) ) ;
#53 = CC_DESIGN_DATE_AND_TIME_ASSIGNMENT ( #140, #74, ( #112 ) ) ;
#54 = COORDINATED_UNIVERSAL_TIME_OFFSET ( 1, 0, .AHEAD. ) ;
#55 = CYLINDRICAL_SURFACE ( 'NONE', #13, 2.000000000000000000 ) ;
#56 = APPROVAL ( #188, 'NEURÈENÝ' ) ;
#57 = AXIS2_PLACEMENT_3D ( 'NONE', #96, #231, #283 ) ;
#58 = AXIS2_PLACEMENT_3D ( 'NONE', #257, #304, #306 ) ;
#59 = ORIENTED_EDGE ( 'NONE', *, *, #164, .T. ) ;
#60 = APPROVAL_DATE_TIME ( #107, #154 ) ;
#61 = EDGE_CURVE ( 'NONE', #88, #150, #190, .T. ) ;
#62 = ORIENTED_EDGE ( 'NONE', *, *, #225, .F. ) ;
#63 = DIRECTION ( 'NONE',  ( 1.000000000000000000, 0.000000000000000000, 0.000000000000000000 ) ) ;
#64 = ORIENTED_EDGE ( 'NONE', *, *, #42, .F. ) ;
#65 = ADVANCED_FACE ( 'NONE', ( #116, #75 ), #19, .T. ) ;
#66 = DIRECTION ( 'NONE',  ( -0.000000000000000000, -0.000000000000000000, -1.000000000000000000 ) ) ;
#67 = PLANE ( 'NONE',  #120 ) ;
#68 = EDGE_CURVE ( 'NONE', #203, #8, #274, .T. ) ;
#69 = DIRECTION ( 'NONE',  ( 1.000000000000000000, 0.000000000000000000, 0.000000000000000000 ) ) ;
#70 = ORIENTED_EDGE ( 'NONE', *, *, #68, .F. ) ;
#71 = CALENDAR_DATE ( 2022, 7, 7 ) ;
#72 = PERSON ( 'NEURÈENÝ', 'NEURÈENÝ', 'NEURÈENÝ', ('NEURÈENÝ'), ('NEURÈENÝ'), ('NEURÈENÝ') ) ;
#73 = ORIENTED_EDGE ( 'NONE', *, *, #169, .T. ) ;
#74 = DATE_TIME_ROLE ( 'creation_date' ) ;
#75 = FACE_OUTER_BOUND ( 'NONE', #189, .T. ) ;
#76 =( NAMED_UNIT ( * ) PLANE_ANGLE_UNIT ( ) SI_UNIT ( $, .RADIAN. ) );
#77 = DIRECTION ( 'NONE',  ( 1.000000000000000000, 0.000000000000000000, 0.000000000000000000 ) ) ;
#78 = AXIS2_PLACEMENT_3D ( 'NONE', #232, #117, #144 ) ;
#79 = DATE_AND_TIME ( #83, #29 ) ;
#80 = ADVANCED_FACE ( 'NONE', ( #158 ), #97, .F. ) ;
#81 = PERSON_AND_ORGANIZATION ( #72, #113 ) ;
#82 = DIRECTION ( 'NONE',  ( -0.000000000000000000, -0.000000000000000000, -1.000000000000000000 ) ) ;
#83 = CALENDAR_DATE ( 2022, 7, 7 ) ;
#84 = ORIENTED_EDGE ( 'NONE', *, *, #104, .F. ) ;
#85 = EDGE_CURVE ( 'NONE', #8, #185, #215, .T. ) ;
#86 = ORIENTED_EDGE ( 'NONE', *, *, #247, .F. ) ;
#87 = CARTESIAN_POINT ( 'NONE',  ( -1.300000000000000266, 1.592040838891559342E-16, 1.999999999999996669 ) ) ;
#88 = VERTEX_POINT ( 'NONE', #87 ) ;
#89 = FACE_OUTER_BOUND ( 'NONE', #253, .T. ) ;
#90 = ADVANCED_FACE ( 'NONE', ( #127 ), #178, .T. ) ;
#91 = AXIS2_PLACEMENT_3D ( 'NONE', #21, #284, #69 ) ;
#92 = APPLICATION_CONTEXT ( 'configuration controlled 3d designs of mechanical parts and assemblies' ) ;
#93 = EDGE_LOOP ( 'NONE', ( #111, #155, #38, #295 ) ) ;
#94 = ORIENTED_EDGE ( 'NONE', *, *, #290, .T. ) ;
#95 = PERSON_AND_ORGANIZATION_ROLE ( 'design_owner' ) ;
#96 = CARTESIAN_POINT ( 'NONE',  ( 0.000000000000000000, 0.000000000000000000, 2.000000000000000000 ) ) ;
#97 = TOROIDAL_SURFACE ( 'NONE', #266, 1.300000000000000266, 0.2000000000000000111 ) ;
#98 = DIRECTION ( 'NONE',  ( 0.000000000000000000, 0.000000000000000000, 1.000000000000000000 ) ) ;
#99 = AXIS2_PLACEMENT_3D ( 'NONE', #151, #4, #218 ) ;
#100 = PRODUCT_DEFINITION_SHAPE ( 'NONE', 'NONE',  #112 ) ;
#101 = CARTESIAN_POINT ( 'NONE',  ( 0.000000000000000000, 0.000000000000000000, 2.199999999999993516 ) ) ;
#102 = CC_DESIGN_PERSON_AND_ORGANIZATION_ASSIGNMENT ( #81, #31, ( #166 ) ) ;
#103 = CC_DESIGN_APPROVAL ( #56, ( #112 ) ) ;
#104 = EDGE_CURVE ( 'NONE', #10, #185, #106, .T. ) ;
#105 = CARTESIAN_POINT ( 'NONE',  ( -1.100000000000000089, 0.000000000000000000, 2.199999999999993516 ) ) ;
#106 = LINE ( 'NONE', #146, #5 ) ;
#107 = DATE_AND_TIME ( #300, #299 ) ;
#108 = ORIENTED_EDGE ( 'NONE', *, *, #20, .F. ) ;
#109 = ORIENTED_EDGE ( 'NONE', *, *, #39, .T. ) ;
#110 = CARTESIAN_POINT ( 'NONE',  ( 0.000000000000000000, 0.000000000000000000, 2.000000000000000000 ) ) ;
#111 = ORIENTED_EDGE ( 'NONE', *, *, #164, .F. ) ;
#112 = PRODUCT_DEFINITION ( 'NEZNÁMÝ', '', #33, #244 ) ;
#113 = ORGANIZATION ( 'NEURÈENÝ', 'NEURÈENÝ', '' ) ;
#114 = ORIENTED_EDGE ( 'NONE', *, *, #61, .T. ) ;
#115 = COORDINATED_UNIVERSAL_TIME_OFFSET ( 1, 0, .AHEAD. ) ;
#116 = FACE_BOUND ( 'NONE', #291, .T. ) ;
#117 = DIRECTION ( 'NONE',  ( 0.000000000000000000, 0.000000000000000000, 1.000000000000000000 ) ) ;
#118 = DIRECTION ( 'NONE',  ( 0.000000000000000000, 0.000000000000000000, 1.000000000000000000 ) ) ;
#119 = CARTESIAN_POINT ( 'NONE',  ( 0.000000000000000000, 0.000000000000000000, 2.000000000000000000 ) ) ;
#120 = AXIS2_PLACEMENT_3D ( 'NONE', #258, #275, #46 ) ;
#121 = APPROVAL_STATUS ( 'not_yet_approved' ) ;
#122 = DIRECTION ( 'NONE',  ( -0.000000000000000000, -0.000000000000000000, -1.000000000000000000 ) ) ;
#123 = ADVANCED_FACE ( 'NONE', ( #221 ), #220, .F. ) ;
#124 = PERSON_AND_ORGANIZATION ( #72, #113 ) ;
#125 = DIRECTION ( 'NONE',  ( 0.000000000000000000, 0.000000000000000000, 1.000000000000000000 ) ) ;
#126 = LOCAL_TIME ( 14, 57, 52.00000000000000000, #195 ) ;
#127 = FACE_OUTER_BOUND ( 'NONE', #303, .T. ) ;
#128 = PERSON_AND_ORGANIZATION_ROLE ( 'design_supplier' ) ;
#129 = ADVANCED_FACE ( 'NONE', ( #239 ), #265, .T. ) ;
#130 = VERTEX_POINT ( 'NONE', #264 ) ;
#131 = APPROVAL_STATUS ( 'not_yet_approved' ) ;
#132 = AXIS2_PLACEMENT_3D ( 'NONE', #52, #286, #27 ) ;
#133 = ORIENTED_EDGE ( 'NONE', *, *, #42, .T. ) ;
#134 = CARTESIAN_POINT ( 'NONE',  ( 0.000000000000000000, 0.000000000000000000, 2.000000000000000000 ) ) ;
#135 = VECTOR ( 'NONE', #66, 1000.000000000000000 ) ;
#136 = DIRECTION ( 'NONE',  ( 1.000000000000000000, 0.000000000000000000, 0.000000000000000000 ) ) ;
#137 = CIRCLE ( 'NONE', #3, 1.100000000000000089 ) ;
#138 = AXIS2_PLACEMENT_3D ( 'NONE', #240, #125, #63 ) ;
#139 = CARTESIAN_POINT ( 'NONE',  ( 0.000000000000000000, 0.000000000000000000, 127.0000000000000000 ) ) ;
#140 = DATE_AND_TIME ( #71, #216 ) ;
#141 = CARTESIAN_POINT ( 'NONE',  ( 0.000000000000000000, 0.000000000000000000, 2.199999999999993516 ) ) ;
#142 = CARTESIAN_POINT ( 'NONE',  ( -1.300000000000000266, 1.592040838891559342E-16, 2.199999999999993516 ) ) ;
#143 = AXIS2_PLACEMENT_3D ( 'NONE', #209, #238, #77 ) ;
#144 = DIRECTION ( 'NONE',  ( 1.000000000000000000, 0.000000000000000000, 0.000000000000000000 ) ) ;
#145 = SHAPE_DEFINITION_REPRESENTATION ( #100, #198 ) ;
#146 = CARTESIAN_POINT ( 'NONE',  ( -2.000000000000000000, 0.000000000000000000, 2.000000000000000000 ) ) ;
#147 = DIRECTION ( 'NONE',  ( -1.000000000000000000, 0.000000000000000000, 0.000000000000000000 ) ) ;
#148 = APPROVAL_PERSON_ORGANIZATION ( #259, #154, #15 ) ;
#149 = EDGE_LOOP ( 'NONE', ( #267, #301, #43, #84 ) ) ;
#150 = VERTEX_POINT ( 'NONE', #171 ) ;
#151 = CARTESIAN_POINT ( 'NONE',  ( 0.000000000000000000, 0.000000000000000000, 2.000000000000000000 ) ) ;
#152 = CC_DESIGN_DATE_AND_TIME_ASSIGNMENT ( #224, #263, ( #166 ) ) ;
#153 = AXIS2_PLACEMENT_3D ( 'NONE', #134, #28, #227 ) ;
#154 = APPROVAL ( #121, 'NEURÈENÝ' ) ;
#155 = ORIENTED_EDGE ( 'NONE', *, *, #247, .T. ) ;
#156 = AXIS2_PLACEMENT_3D ( 'NONE', #119, #277, #305 ) ;
#157 = LOCAL_TIME ( 14, 57, 52.00000000000000000, #175 ) ;
#158 = FACE_OUTER_BOUND ( 'NONE', #249, .T. ) ;
#159 = PRODUCT ( 'a1fc', 'a1fc', '', ( #47 ) ) ;
#160 = DIRECTION ( 'NONE',  ( -0.000000000000000000, -0.000000000000000000, -1.000000000000000000 ) ) ;
#161 = DIRECTION ( 'NONE',  ( -0.000000000000000000, -0.000000000000000000, -1.000000000000000000 ) ) ;
#162 = DIRECTION ( 'NONE',  ( 0.000000000000000000, 0.000000000000000000, 1.000000000000000000 ) ) ;
#163 = CLOSED_SHELL ( 'NONE', ( #123, #90, #200, #183, #65, #217, #129, #2, #80 ) ) ;
#164 = EDGE_CURVE ( 'NONE', #172, #130, #271, .T. ) ;
#165 = APPROVAL ( #131, 'NEURÈENÝ' ) ;
#166 = SECURITY_CLASSIFICATION ( '', '', #202 ) ;
#167 = ORIENTED_EDGE ( 'NONE', *, *, #290, .F. ) ;
#168 = CARTESIAN_POINT ( 'NONE',  ( 0.000000000000000000, 0.000000000000000000, 2.000000000000000000 ) ) ;
#169 = EDGE_CURVE ( 'NONE', #203, #10, #184, .T. ) ;
#170 = DIRECTION ( 'NONE',  ( -0.000000000000000000, -0.000000000000000000, -1.000000000000000000 ) ) ;
#171 = CARTESIAN_POINT ( 'NONE',  ( 1.300000000000000266, 0.000000000000000000, 1.999999999999996669 ) ) ;
#172 = VERTEX_POINT ( 'NONE', #105 ) ;
#173 = CC_DESIGN_PERSON_AND_ORGANIZATION_ASSIGNMENT ( #124, #128, ( #33 ) ) ;
#174 = AXIS2_PLACEMENT_3D ( 'NONE', #236, #307, #261 ) ;
#175 = COORDINATED_UNIVERSAL_TIME_OFFSET ( 1, 0, .AHEAD. ) ;
#176 = ORIENTED_EDGE ( 'NONE', *, *, #61, .F. ) ;
#177 = ORIENTED_EDGE ( 'NONE', *, *, #237, .T. ) ;
#178 = CYLINDRICAL_SURFACE ( 'NONE', #132, 1.100000000000000089 ) ;
#179 = ORIENTED_EDGE ( 'NONE', *, *, #104, .T. ) ;
#180 = AXIS2_PLACEMENT_3D ( 'NONE', #40, #98, #136 ) ;
#181 = CARTESIAN_POINT ( 'NONE',  ( 0.000000000000000000, 0.000000000000000000, 127.0000000000000000 ) ) ;
#182 = AXIS2_PLACEMENT_3D ( 'NONE', #101, #196, #242 ) ;
#183 = ADVANCED_FACE ( 'NONE', ( #287 ), #7, .T. ) ;
#184 = CIRCLE ( 'NONE', #99, 2.000000000000000000 ) ;
#185 = VERTEX_POINT ( 'NONE', #26 ) ;
#186 = APPLICATION_PROTOCOL_DEFINITION ( 'international standard', 'config_control_design', 1994, #92 ) ;
#187 = CARTESIAN_POINT ( 'NONE',  ( -1.100000000000000089, 0.000000000000000000, 127.0000000000000000 ) ) ;
#188 = APPROVAL_STATUS ( 'not_yet_approved' ) ;
#189 = EDGE_LOOP ( 'NONE', ( #294, #73 ) ) ;
#190 = CIRCLE ( 'NONE', #57, 1.300000000000000266 ) ;
#191 =( NAMED_UNIT ( * ) SI_UNIT ( $, .STERADIAN. ) SOLID_ANGLE_UNIT ( ) );
#192 = VECTOR ( 'NONE', #161, 1000.000000000000000 ) ;
#193 = CARTESIAN_POINT ( 'NONE',  ( 2.000000000000000000, 2.449293598294706414E-16, 0.000000000000000000 ) ) ;
#194 = DATE_AND_TIME ( #278, #126 ) ;
#195 = COORDINATED_UNIVERSAL_TIME_OFFSET ( 1, 0, .AHEAD. ) ;
#196 = DIRECTION ( 'NONE',  ( 0.000000000000000000, 0.000000000000000000, 1.000000000000000000 ) ) ;
#197 = DIRECTION ( 'NONE',  ( -1.000000000000000000, 0.000000000000000000, 0.000000000000000000 ) ) ;
#198 = ADVANCED_BREP_SHAPE_REPRESENTATION ( 'a1fc', ( #41, #78 ), #292 ) ;
#199 = CALENDAR_DATE ( 2022, 7, 7 ) ;
#200 = ADVANCED_FACE ( 'NONE', ( #12 ), #55, .T. ) ;
#201 = CARTESIAN_POINT ( 'NONE',  ( 2.000000000000000000, 2.449293598294706414E-16, 2.000000000000000000 ) ) ;
#202 = SECURITY_CLASSIFICATION_LEVEL ( 'unclassified' ) ;
#203 = VERTEX_POINT ( 'NONE', #201 ) ;
#204 = CC_DESIGN_SECURITY_CLASSIFICATION ( #166, ( #33 ) ) ;
#205 = DIRECTION ( 'NONE',  ( 0.000000000000000000, 0.000000000000000000, 1.000000000000000000 ) ) ;
#206 = CIRCLE ( 'NONE', #156, 1.300000000000000266 ) ;
#207 = VERTEX_POINT ( 'NONE', #289 ) ;
#208 = CIRCLE ( 'NONE', #50, 0.2000000000000000944 ) ;
#209 = CARTESIAN_POINT ( 'NONE',  ( 0.000000000000000000, 0.000000000000000000, 0.000000000000000000 ) ) ;
#210 = CARTESIAN_POINT ( 'NONE',  ( 2.000000000000000000, 2.449293598294706414E-16, 2.000000000000000000 ) ) ;
#211 = PERSON_AND_ORGANIZATION ( #72, #113 ) ;
#212 = CARTESIAN_POINT ( 'NONE',  ( -2.000000000000000000, 0.000000000000000000, 2.000000000000000000 ) ) ;
#213 = DIRECTION ( 'NONE',  ( 1.224646799147353207E-16, 1.000000000000000000, -0.000000000000000000 ) ) ;
#214 = LINE ( 'NONE', #187, #279 ) ;
#215 = CIRCLE ( 'NONE', #252, 2.000000000000000000 ) ;
#216 = LOCAL_TIME ( 14, 57, 52.00000000000000000, #262 ) ;
#217 = ADVANCED_FACE ( 'NONE', ( #89 ), #1, .F. ) ;
#218 = DIRECTION ( 'NONE',  ( 1.000000000000000000, 0.000000000000000000, 0.000000000000000000 ) ) ;
#219 = DIRECTION ( 'NONE',  ( 1.000000000000000000, 0.000000000000000000, 0.000000000000000000 ) ) ;
#220 = TOROIDAL_SURFACE ( 'NONE', #182, 1.300000000000000266, 0.2000000000000000111 ) ;
#221 = FACE_OUTER_BOUND ( 'NONE', #93, .T. ) ;
#222 = APPROVAL_DATE_TIME ( #79, #165 ) ;
#223 = EDGE_LOOP ( 'NONE', ( #256, #230, #270, #59 ) ) ;
#224 = DATE_AND_TIME ( #199, #157 ) ;
#225 = EDGE_CURVE ( 'NONE', #10, #203, #44, .T. ) ;
#226 = CIRCLE ( 'NONE', #174, 0.2000000000000000944 ) ;
#227 = DIRECTION ( 'NONE',  ( -1.000000000000000000, 0.000000000000000000, 0.000000000000000000 ) ) ;
#228 = ORIENTED_EDGE ( 'NONE', *, *, #30, .F. ) ;
#229 = AXIS2_PLACEMENT_3D ( 'NONE', #168, #162, #260 ) ;
#230 = ORIENTED_EDGE ( 'NONE', *, *, #49, .F. ) ;
#231 = DIRECTION ( 'NONE',  ( -0.000000000000000000, -0.000000000000000000, -1.000000000000000000 ) ) ;
#232 = CARTESIAN_POINT ( 'NONE',  ( 0.000000000000000000, 0.000000000000000000, 0.000000000000000000 ) ) ;
#233 = ORIENTED_EDGE ( 'NONE', *, *, #49, .T. ) ;
#234 = CARTESIAN_POINT ( 'NONE',  ( 1.100000000000000089, 1.347111479062088503E-16, 127.0000000000000000 ) ) ;
#235 = DIRECTION ( 'NONE',  ( 0.000000000000000000, 0.000000000000000000, 1.000000000000000000 ) ) ;
#236 = CARTESIAN_POINT ( 'NONE',  ( 1.300000000000000266, 0.000000000000000000, 2.199999999999993516 ) ) ;
#237 = EDGE_CURVE ( 'NONE', #207, #130, #302, .T. ) ;
#238 = DIRECTION ( 'NONE',  ( 0.000000000000000000, 0.000000000000000000, 1.000000000000000000 ) ) ;
#239 = FACE_OUTER_BOUND ( 'NONE', #223, .T. ) ;
#240 = CARTESIAN_POINT ( 'NONE',  ( 0.000000000000000000, 0.000000000000000000, 2.199999999999993516 ) ) ;
#241 = AXIS2_PLACEMENT_3D ( 'NONE', #141, #235, #22 ) ;
#242 = DIRECTION ( 'NONE',  ( 1.000000000000000000, 0.000000000000000000, 0.000000000000000000 ) ) ;
#243 = AXIS2_PLACEMENT_3D ( 'NONE', #181, #170, #197 ) ;
#244 = DESIGN_CONTEXT ( 'detailed design', #92, 'design' ) ;
#245 = ORIENTED_EDGE ( 'NONE', *, *, #251, .T. ) ;
#246 = APPROVAL_ROLE ( '' ) ;
#247 = EDGE_CURVE ( 'NONE', #172, #88, #208, .T. ) ;
#248 = CARTESIAN_POINT ( 'NONE',  ( 0.000000000000000000, 0.000000000000000000, 2.199999999999993516 ) ) ;
#249 = EDGE_LOOP ( 'NONE', ( #86, #228, #245, #176 ) ) ;
#250 = APPLICATION_CONTEXT ( 'configuration controlled 3d designs of mechanical parts and assemblies' ) ;
#251 = EDGE_CURVE ( 'NONE', #130, #150, #226, .T. ) ;
#252 = AXIS2_PLACEMENT_3D ( 'NONE', #34, #296, #269 ) ;
#253 = EDGE_LOOP ( 'NONE', ( #167, #14 ) ) ;
#254 = DIRECTION ( 'NONE',  ( 1.000000000000000000, 0.000000000000000000, 0.000000000000000000 ) ) ;
#255 =( LENGTH_UNIT ( ) NAMED_UNIT ( * ) SI_UNIT ( .MILLI., .METRE. ) );
#256 = ORIENTED_EDGE ( 'NONE', *, *, #237, .F. ) ;
#257 = CARTESIAN_POINT ( 'NONE',  ( 0.000000000000000000, 0.000000000000000000, 0.000000000000000000 ) ) ;
#258 = CARTESIAN_POINT ( 'NONE',  ( 0.000000000000000000, 0.000000000000000000, 127.0000000000000000 ) ) ;
#259 = PERSON_AND_ORGANIZATION ( #72, #113 ) ;
#260 = DIRECTION ( 'NONE',  ( 1.000000000000000000, 0.000000000000000000, -0.000000000000000000 ) ) ;
#261 = DIRECTION ( 'NONE',  ( 0.000000000000000000, 0.000000000000000000, -1.000000000000000000 ) ) ;
#262 = COORDINATED_UNIVERSAL_TIME_OFFSET ( 1, 0, .AHEAD. ) ;
#263 = DATE_TIME_ROLE ( 'classification_date' ) ;
#264 = CARTESIAN_POINT ( 'NONE',  ( 1.100000000000000089, 1.347111479062088503E-16, 2.199999999999993516 ) ) ;
#265 = CYLINDRICAL_SURFACE ( 'NONE', #243, 1.100000000000000089 ) ;
#266 = AXIS2_PLACEMENT_3D ( 'NONE', #248, #205, #219 ) ;
#267 = ORIENTED_EDGE ( 'NONE', *, *, #169, .F. ) ;
#268 = UNCERTAINTY_MEASURE_WITH_UNIT (LENGTH_MEASURE( 1.000000000000000082E-05 ), #255, 'distance_accuracy_value', 'NONE');
#269 = DIRECTION ( 'NONE',  ( 1.000000000000000000, 0.000000000000000000, 0.000000000000000000 ) ) ;
#270 = ORIENTED_EDGE ( 'NONE', *, *, #20, .T. ) ;
#271 = CIRCLE ( 'NONE', #138, 1.100000000000000089 ) ;
#272 = CC_DESIGN_PERSON_AND_ORGANIZATION_ASSIGNMENT ( #6, #288, ( #33 ) ) ;
#273 = CIRCLE ( 'NONE', #241, 1.100000000000000089 ) ;
#274 = LINE ( 'NONE', #210, #135 ) ;
#275 = DIRECTION ( 'NONE',  ( 0.000000000000000000, 0.000000000000000000, 1.000000000000000000 ) ) ;
#276 = APPROVAL_ROLE ( '' ) ;
#277 = DIRECTION ( 'NONE',  ( -0.000000000000000000, -0.000000000000000000, -1.000000000000000000 ) ) ;
#278 = CALENDAR_DATE ( 2022, 7, 7 ) ;
#279 = VECTOR ( 'NONE', #160, 1000.000000000000000 ) ;
#280 = VERTEX_POINT ( 'NONE', #48 ) ;
#281 = APPROVAL_PERSON_ORGANIZATION ( #293, #165, #246 ) ;
#282 = PERSON_AND_ORGANIZATION ( #72, #113 ) ;
#283 = DIRECTION ( 'NONE',  ( 1.000000000000000000, 0.000000000000000000, 0.000000000000000000 ) ) ;
#284 = DIRECTION ( 'NONE',  ( 0.000000000000000000, 0.000000000000000000, 1.000000000000000000 ) ) ;
#285 = APPROVAL_DATE_TIME ( #194, #56 ) ;
#286 = DIRECTION ( 'NONE',  ( -0.000000000000000000, -0.000000000000000000, -1.000000000000000000 ) ) ;
#287 = FACE_OUTER_BOUND ( 'NONE', #35, .T. ) ;
#288 = PERSON_AND_ORGANIZATION_ROLE ( 'creator' ) ;
#289 = CARTESIAN_POINT ( 'NONE',  ( 1.100000000000000089, 1.347111479062088503E-16, 127.0000000000000000 ) ) ;
#290 = EDGE_CURVE ( 'NONE', #185, #8, #24, .T. ) ;
#291 = EDGE_LOOP ( 'NONE', ( #109, #114 ) ) ;
#292 =( GEOMETRIC_REPRESENTATION_CONTEXT ( 3 ) GLOBAL_UNCERTAINTY_ASSIGNED_CONTEXT ( ( #268 ) ) GLOBAL_UNIT_ASSIGNED_CONTEXT ( ( #255, #76, #191 ) ) REPRESENTATION_CONTEXT ( 'NONE', 'WORKASPACE' ) );
#293 = PERSON_AND_ORGANIZATION ( #72, #113 ) ;
#294 = ORIENTED_EDGE ( 'NONE', *, *, #225, .T. ) ;
#295 = ORIENTED_EDGE ( 'NONE', *, *, #251, .F. ) ;
#296 = DIRECTION ( 'NONE',  ( 0.000000000000000000, 0.000000000000000000, 1.000000000000000000 ) ) ;
#297 = CC_DESIGN_APPROVAL ( #154, ( #33 ) ) ;
#298 = EDGE_LOOP ( 'NONE', ( #233, #133 ) ) ;
#299 = LOCAL_TIME ( 14, 57, 52.00000000000000000, #115 ) ;
#300 = CALENDAR_DATE ( 2022, 7, 7 ) ;
#301 = ORIENTED_EDGE ( 'NONE', *, *, #68, .T. ) ;
#302 = LINE ( 'NONE', #234, #192 ) ;
#303 = EDGE_LOOP ( 'NONE', ( #64, #177, #32, #108 ) ) ;
#304 = DIRECTION ( 'NONE',  ( 0.000000000000000000, 0.000000000000000000, 1.000000000000000000 ) ) ;
#305 = DIRECTION ( 'NONE',  ( 1.000000000000000000, 0.000000000000000000, 0.000000000000000000 ) ) ;
#306 = DIRECTION ( 'NONE',  ( 1.000000000000000000, 0.000000000000000000, -0.000000000000000000 ) ) ;
#307 = DIRECTION ( 'NONE',  ( 0.000000000000000000, -1.000000000000000000, 0.000000000000000000 ) ) ;
ENDSEC;
END-ISO-10303-21;
