ISO-10303-21;
HEADER;
FILE_DESCRIPTION (( 'STEP AP203' ),
    '1' );
FILE_NAME ('4594.STEP',
    '2022-07-07T12:25:42',
    ( '' ),
    ( '' ),
    'SwSTEP 2.0',
    'SolidWorks 2019',
    '' );
FILE_SCHEMA (( 'CONFIG_CONTROL_DESIGN' ));
ENDSEC;

DATA;
#1 = CARTESIAN_POINT ( 'NONE',  ( 0.000000000000000000, 0.000000000000000000, 5.199999999999996625 ) ) ;
#2 = CARTESIAN_POINT ( 'NONE',  ( 0.000000000000000000, 0.000000000000000000, 130.0000000000000000 ) ) ;
#3 = FACE_OUTER_BOUND ( 'NONE', #47, .T. ) ;
#4 = DESIGN_CONTEXT ( 'detailed design', #141, 'design' ) ;
#5 = DIRECTION ( 'NONE',  ( -0.000000000000000000, -0.000000000000000000, -1.000000000000000000 ) ) ;
#6 = CIRCLE ( 'NONE', #182, 0.1999999999999996503 ) ;
#7 = AXIS2_PLACEMENT_3D ( 'NONE', #76, #286, #281 ) ;
#8 = ADVANCED_FACE ( 'NONE', ( #113 ), #279, .F. ) ;
#9 = COORDINATED_UNIVERSAL_TIME_OFFSET ( 1, 0, .AHEAD. ) ;
#10 = CIRCLE ( 'NONE', #46, 8.000000000000000000 ) ;
#11 = PERSON_AND_ORGANIZATION_ROLE ( 'design_owner' ) ;
#12 = EDGE_LOOP ( 'NONE', ( #23, #38, #243, #180 ) ) ;
#13 = EDGE_CURVE ( 'NONE', #36, #250, #118, .T. ) ;
#14 = APPROVAL_STATUS ( 'not_yet_approved' ) ;
#15 = CC_DESIGN_SECURITY_CLASSIFICATION ( #98, ( #289 ) ) ;
#16 = PERSON_AND_ORGANIZATION ( #103, #183 ) ;
#17 = EDGE_CURVE ( 'NONE', #202, #248, #212, .T. ) ;
#18 = DIRECTION ( 'NONE',  ( 1.000000000000000000, 0.000000000000000000, 0.000000000000000000 ) ) ;
#19 = EDGE_LOOP ( 'NONE', ( #42, #44 ) ) ;
#20 = AXIS2_PLACEMENT_3D ( 'NONE', #96, #54, #283 ) ;
#21 = ORIENTED_EDGE ( 'NONE', *, *, #17, .F. ) ;
#22 = VECTOR ( 'NONE', #160, 1000.000000000000000 ) ;
#23 = ORIENTED_EDGE ( 'NONE', *, *, #288, .F. ) ;
#24 = EDGE_CURVE ( 'NONE', #163, #250, #10, .T. ) ;
#25 = LOCAL_TIME ( 14, 25, 42.00000000000000000, #128 ) ;
#26 = CARTESIAN_POINT ( 'NONE',  ( 0.000000000000000000, 0.000000000000000000, 5.000000000000000000 ) ) ;
#27 = DIRECTION ( 'NONE',  ( 0.000000000000000000, 0.000000000000000000, -1.000000000000000000 ) ) ;
#28 = EDGE_CURVE ( 'NONE', #150, #36, #199, .T. ) ;
#29 = CARTESIAN_POINT ( 'NONE',  ( -8.000000000000000000, 0.000000000000000000, 0.000000000000000000 ) ) ;
#30 = AXIS2_PLACEMENT_3D ( 'NONE', #94, #5, #239 ) ;
#31 = ADVANCED_FACE ( 'NONE', ( #138 ), #234, .F. ) ;
#32 = FACE_OUTER_BOUND ( 'NONE', #296, .T. ) ;
#33 = CARTESIAN_POINT ( 'NONE',  ( 5.500000000000000000, 6.735557395310442023E-16, 130.0000000000000000 ) ) ;
#34 = VECTOR ( 'NONE', #70, 1000.000000000000000 ) ;
#35 = APPROVAL_ROLE ( '' ) ;
#36 = VERTEX_POINT ( 'NONE', #134 ) ;
#37 = AXIS2_PLACEMENT_3D ( 'NONE', #148, #242, #217 ) ;
#38 = ORIENTED_EDGE ( 'NONE', *, *, #232, .T. ) ;
#39 = PERSON_AND_ORGANIZATION ( #103, #183 ) ;
#40 = CC_DESIGN_DATE_AND_TIME_ASSIGNMENT ( #200, #225, ( #165 ) ) ;
#41 = PERSON_AND_ORGANIZATION ( #103, #183 ) ;
#42 = ORIENTED_EDGE ( 'NONE', *, *, #170, .T. ) ;
#43 = EDGE_CURVE ( 'NONE', #202, #204, #139, .T. ) ;
#44 = ORIENTED_EDGE ( 'NONE', *, *, #116, .T. ) ;
#45 = ORIENTED_EDGE ( 'NONE', *, *, #28, .T. ) ;
#46 = AXIS2_PLACEMENT_3D ( 'NONE', #249, #210, #18 ) ;
#47 = EDGE_LOOP ( 'NONE', ( #66, #189, #230, #159 ) ) ;
#48 = DIRECTION ( 'NONE',  ( 1.000000000000000000, 0.000000000000000000, 0.000000000000000000 ) ) ;
#49 = CC_DESIGN_APPROVAL ( #144, ( #165 ) ) ;
#50 = DIRECTION ( 'NONE',  ( 1.000000000000000000, 0.000000000000000000, 0.000000000000000000 ) ) ;
#51 = AXIS2_PLACEMENT_3D ( 'NONE', #304, #305, #50 ) ;
#52 = DIRECTION ( 'NONE',  ( 1.000000000000000000, 0.000000000000000000, 0.000000000000000000 ) ) ;
#53 = ADVANCED_BREP_SHAPE_REPRESENTATION ( '4594', ( #135, #77 ), #147 ) ;
#54 = DIRECTION ( 'NONE',  ( 1.224646799147353207E-16, 1.000000000000000000, -0.000000000000000000 ) ) ;
#55 = EDGE_CURVE ( 'NONE', #204, #109, #164, .T. ) ;
#56 = CARTESIAN_POINT ( 'NONE',  ( -5.699999999999999289, 6.980486755139912122E-16, 4.999999999999998224 ) ) ;
#57 = DIRECTION ( 'NONE',  ( 0.000000000000000000, 0.000000000000000000, 1.000000000000000000 ) ) ;
#58 = AXIS2_PLACEMENT_3D ( 'NONE', #241, #145, #143 ) ;
#59 = AXIS2_PLACEMENT_3D ( 'NONE', #1, #214, #100 ) ;
#60 = PERSON_AND_ORGANIZATION ( #103, #183 ) ;
#61 = CC_DESIGN_PERSON_AND_ORGANIZATION_ASSIGNMENT ( #173, #266, ( #289 ) ) ;
#62 = APPROVAL_STATUS ( 'not_yet_approved' ) ;
#63 = ORIENTED_EDGE ( 'NONE', *, *, #213, .T. ) ;
#64 = PERSON_AND_ORGANIZATION ( #103, #183 ) ;
#65 = DATE_TIME_ROLE ( 'classification_date' ) ;
#66 = ORIENTED_EDGE ( 'NONE', *, *, #105, .F. ) ;
#67 = APPROVAL_DATE_TIME ( #271, #205 ) ;
#68 = ORIENTED_EDGE ( 'NONE', *, *, #116, .F. ) ;
#69 = APPROVAL_PERSON_ORGANIZATION ( #16, #144, #222 ) ;
#70 = DIRECTION ( 'NONE',  ( -0.000000000000000000, -0.000000000000000000, -1.000000000000000000 ) ) ;
#71 = DIRECTION ( 'NONE',  ( 0.000000000000000000, 0.000000000000000000, 1.000000000000000000 ) ) ;
#72 = ORIENTED_EDGE ( 'NONE', *, *, #236, .T. ) ;
#73 = DIRECTION ( 'NONE',  ( 1.000000000000000000, 0.000000000000000000, 0.000000000000000000 ) ) ;
#74 = CARTESIAN_POINT ( 'NONE',  ( 0.000000000000000000, 0.000000000000000000, 0.000000000000000000 ) ) ;
#75 = CARTESIAN_POINT ( 'NONE',  ( 0.000000000000000000, 0.000000000000000000, 0.000000000000000000 ) ) ;
#76 = CARTESIAN_POINT ( 'NONE',  ( 0.000000000000000000, 0.000000000000000000, 5.199999999999996625 ) ) ;
#77 = AXIS2_PLACEMENT_3D ( 'NONE', #83, #107, #270 ) ;
#78 = FACE_OUTER_BOUND ( 'NONE', #127, .T. ) ;
#79 = DIRECTION ( 'NONE',  ( 1.000000000000000000, 0.000000000000000000, 0.000000000000000000 ) ) ;
#80 = APPLICATION_PROTOCOL_DEFINITION ( 'international standard', 'config_control_design', 1994, #141 ) ;
#81 = ORIENTED_EDGE ( 'NONE', *, *, #43, .F. ) ;
#82 = DATE_AND_TIME ( #293, #25 ) ;
#83 = CARTESIAN_POINT ( 'NONE',  ( 0.000000000000000000, 0.000000000000000000, 0.000000000000000000 ) ) ;
#84 = ORIENTED_EDGE ( 'NONE', *, *, #213, .F. ) ;
#85 = CALENDAR_DATE ( 2022, 7, 7 ) ;
#86 = ORIENTED_EDGE ( 'NONE', *, *, #287, .T. ) ;
#87 = PRODUCT_DEFINITION_SHAPE ( 'NONE', 'NONE',  #165 ) ;
#88 = CIRCLE ( 'NONE', #97, 5.699999999999999289 ) ;
#89 = AXIS2_PLACEMENT_3D ( 'NONE', #194, #168, #219 ) ;
#90 = FACE_OUTER_BOUND ( 'NONE', #12, .T. ) ;
#91 = DIRECTION ( 'NONE',  ( -0.000000000000000000, -0.000000000000000000, -1.000000000000000000 ) ) ;
#92 = DIRECTION ( 'NONE',  ( 0.000000000000000000, 0.000000000000000000, 1.000000000000000000 ) ) ;
#93 = CARTESIAN_POINT ( 'NONE',  ( 0.000000000000000000, 0.000000000000000000, 5.000000000000000000 ) ) ;
#94 = CARTESIAN_POINT ( 'NONE',  ( 0.000000000000000000, 0.000000000000000000, 130.0000000000000000 ) ) ;
#95 = FACE_OUTER_BOUND ( 'NONE', #233, .T. ) ;
#96 = CARTESIAN_POINT ( 'NONE',  ( -5.699999999999999289, 6.980486755139912122E-16, 5.199999999999996625 ) ) ;
#97 = AXIS2_PLACEMENT_3D ( 'NONE', #259, #237, #79 ) ;
#98 = SECURITY_CLASSIFICATION ( '', '', #176 ) ;
#99 = CARTESIAN_POINT ( 'NONE',  ( 8.000000000000000000, 9.797174393178825657E-16, 0.000000000000000000 ) ) ;
#100 = DIRECTION ( 'NONE',  ( 1.000000000000000000, 0.000000000000000000, 0.000000000000000000 ) ) ;
#101 = AXIS2_PLACEMENT_3D ( 'NONE', #302, #301, #276 ) ;
#102 = DIRECTION ( 'NONE',  ( 0.000000000000000000, 0.000000000000000000, 1.000000000000000000 ) ) ;
#103 = PERSON ( 'NEURÈENÝ', 'NEURÈENÝ', 'NEURÈENÝ', ('NEURÈENÝ'), ('NEURÈENÝ'), ('NEURÈENÝ') ) ;
#104 = CIRCLE ( 'NONE', #20, 0.1999999999999996503 ) ;
#105 = EDGE_CURVE ( 'NONE', #36, #150, #292, .T. ) ;
#106 = ORIENTED_EDGE ( 'NONE', *, *, #17, .T. ) ;
#107 = DIRECTION ( 'NONE',  ( 0.000000000000000000, 0.000000000000000000, 1.000000000000000000 ) ) ;
#108 = CALENDAR_DATE ( 2022, 7, 7 ) ;
#109 = VERTEX_POINT ( 'NONE', #251 ) ;
#110 = APPROVAL_ROLE ( '' ) ;
#111 = ORIENTED_EDGE ( 'NONE', *, *, #232, .F. ) ;
#112 = CARTESIAN_POINT ( 'NONE',  ( 5.500000000000000000, 6.735557395310442023E-16, 130.0000000000000000 ) ) ;
#113 = FACE_OUTER_BOUND ( 'NONE', #272, .T. ) ;
#114 = ORIENTED_EDGE ( 'NONE', *, *, #209, .F. ) ;
#115 = ORIENTED_EDGE ( 'NONE', *, *, #55, .F. ) ;
#116 = EDGE_CURVE ( 'NONE', #298, #227, #254, .T. ) ;
#117 = ADVANCED_FACE ( 'NONE', ( #90 ), #299, .F. ) ;
#118 = LINE ( 'NONE', #132, #22 ) ;
#119 = DIRECTION ( 'NONE',  ( -0.000000000000000000, -0.000000000000000000, -1.000000000000000000 ) ) ;
#120 = CYLINDRICAL_SURFACE ( 'NONE', #278, 8.000000000000000000 ) ;
#121 = FACE_BOUND ( 'NONE', #19, .T. ) ;
#122 = ADVANCED_FACE ( 'NONE', ( #252 ), #303, .T. ) ;
#123 = PLANE ( 'NONE',  #37 ) ;
#124 = CARTESIAN_POINT ( 'NONE',  ( 0.000000000000000000, 0.000000000000000000, 5.000000000000000000 ) ) ;
#125 = AXIS2_PLACEMENT_3D ( 'NONE', #206, #140, #48 ) ;
#126 = APPROVAL_DATE_TIME ( #82, #151 ) ;
#127 = EDGE_LOOP ( 'NONE', ( #115, #81, #106, #131 ) ) ;
#128 = COORDINATED_UNIVERSAL_TIME_OFFSET ( 1, 0, .AHEAD. ) ;
#129 = LOCAL_TIME ( 14, 25, 42.00000000000000000, #198 ) ;
#130 = PERSON_AND_ORGANIZATION_ROLE ( 'creator' ) ;
#131 = ORIENTED_EDGE ( 'NONE', *, *, #288, .T. ) ;
#132 = CARTESIAN_POINT ( 'NONE',  ( 8.000000000000000000, 9.797174393178825657E-16, 5.000000000000000000 ) ) ;
#133 = PRODUCT ( '4594', '4594', '', ( #201 ) ) ;
#134 = CARTESIAN_POINT ( 'NONE',  ( 8.000000000000000000, 9.797174393178825657E-16, 5.000000000000000000 ) ) ;
#135 = MANIFOLD_SOLID_BREP ( 'Zaoblit1', #223 ) ;
#136 = LOCAL_TIME ( 14, 25, 42.00000000000000000, #224 ) ;
#137 = ORIENTED_EDGE ( 'NONE', *, *, #28, .F. ) ;
#138 = FACE_OUTER_BOUND ( 'NONE', #277, .T. ) ;
#139 = CIRCLE ( 'NONE', #51, 5.500000000000000000 ) ;
#140 = DIRECTION ( 'NONE',  ( -0.000000000000000000, -0.000000000000000000, -1.000000000000000000 ) ) ;
#141 = APPLICATION_CONTEXT ( 'configuration controlled 3d designs of mechanical parts and assemblies' ) ;
#142 = DIRECTION ( 'NONE',  ( -0.000000000000000000, -0.000000000000000000, -1.000000000000000000 ) ) ;
#143 = DIRECTION ( 'NONE',  ( 1.000000000000000000, 0.000000000000000000, -0.000000000000000000 ) ) ;
#144 = APPROVAL ( #174, 'NEURÈENÝ' ) ;
#145 = DIRECTION ( 'NONE',  ( 0.000000000000000000, 0.000000000000000000, 1.000000000000000000 ) ) ;
#146 = PLANE ( 'NONE',  #58 ) ;
#147 =( GEOMETRIC_REPRESENTATION_CONTEXT ( 3 ) GLOBAL_UNCERTAINTY_ASSIGNED_CONTEXT ( ( #171 ) ) GLOBAL_UNIT_ASSIGNED_CONTEXT ( ( #172, #244, #245 ) ) REPRESENTATION_CONTEXT ( 'NONE', 'WORKASPACE' ) );
#148 = CARTESIAN_POINT ( 'NONE',  ( 0.000000000000000000, 0.000000000000000000, 5.000000000000000000 ) ) ;
#149 = PERSON_AND_ORGANIZATION ( #103, #183 ) ;
#150 = VERTEX_POINT ( 'NONE', #280 ) ;
#151 = APPROVAL ( #62, 'NEURÈENÝ' ) ;
#152 = PERSON_AND_ORGANIZATION_ROLE ( 'classification_officer' ) ;
#153 = DATE_AND_TIME ( #291, #129 ) ;
#154 = ORIENTED_EDGE ( 'NONE', *, *, #43, .T. ) ;
#155 = SHAPE_DEFINITION_REPRESENTATION ( #87, #53 ) ;
#156 = ORIENTED_EDGE ( 'NONE', *, *, #55, .T. ) ;
#157 = CIRCLE ( 'NONE', #7, 5.500000000000000000 ) ;
#158 = CARTESIAN_POINT ( 'NONE',  ( -5.500000000000000000, 0.000000000000000000, 130.0000000000000000 ) ) ;
#159 = ORIENTED_EDGE ( 'NONE', *, *, #236, .F. ) ;
#160 = DIRECTION ( 'NONE',  ( -0.000000000000000000, -0.000000000000000000, -1.000000000000000000 ) ) ;
#161 = ADVANCED_FACE ( 'NONE', ( #284 ), #146, .T. ) ;
#162 = APPROVAL_PERSON_ORGANIZATION ( #41, #205, #110 ) ;
#163 = VERTEX_POINT ( 'NONE', #29 ) ;
#164 = LINE ( 'NONE', #112, #215 ) ;
#165 = PRODUCT_DEFINITION ( 'NEZNÁMÝ', '', #289, #4 ) ;
#166 = DIRECTION ( 'NONE',  ( -1.000000000000000000, 0.000000000000000000, 0.000000000000000000 ) ) ;
#167 = DIRECTION ( 'NONE',  ( 1.000000000000000000, 0.000000000000000000, 0.000000000000000000 ) ) ;
#168 = DIRECTION ( 'NONE',  ( -0.000000000000000000, -0.000000000000000000, -1.000000000000000000 ) ) ;
#169 = CARTESIAN_POINT ( 'NONE',  ( -8.000000000000000000, 0.000000000000000000, 5.000000000000000000 ) ) ;
#170 = EDGE_CURVE ( 'NONE', #227, #298, #88, .T. ) ;
#171 = UNCERTAINTY_MEASURE_WITH_UNIT (LENGTH_MEASURE( 1.000000000000000082E-05 ), #172, 'distance_accuracy_value', 'NONE');
#172 =( LENGTH_UNIT ( ) NAMED_UNIT ( * ) SI_UNIT ( .MILLI., .METRE. ) );
#173 = PERSON_AND_ORGANIZATION ( #103, #183 ) ;
#174 = APPROVAL_STATUS ( 'not_yet_approved' ) ;
#175 = CC_DESIGN_DATE_AND_TIME_ASSIGNMENT ( #178, #65, ( #98 ) ) ;
#176 = SECURITY_CLASSIFICATION_LEVEL ( 'unclassified' ) ;
#177 = ADVANCED_FACE ( 'NONE', ( #121, #32 ), #123, .T. ) ;
#178 = DATE_AND_TIME ( #108, #136 ) ;
#179 = APPLICATION_PROTOCOL_DEFINITION ( 'international standard', 'config_control_design', 1994, #186 ) ;
#180 = ORIENTED_EDGE ( 'NONE', *, *, #260, .F. ) ;
#181 = ORIENTED_EDGE ( 'NONE', *, *, #24, .T. ) ;
#182 = AXIS2_PLACEMENT_3D ( 'NONE', #191, #238, #27 ) ;
#183 = ORGANIZATION ( 'NEURÈENÝ', 'NEURÈENÝ', '' ) ;
#184 = CARTESIAN_POINT ( 'NONE',  ( 0.000000000000000000, 0.000000000000000000, 5.000000000000000000 ) ) ;
#185 = ORIENTED_EDGE ( 'NONE', *, *, #260, .T. ) ;
#186 = APPLICATION_CONTEXT ( 'configuration controlled 3d designs of mechanical parts and assemblies' ) ;
#187 = ORIENTED_EDGE ( 'NONE', *, *, #24, .F. ) ;
#188 = LOCAL_TIME ( 14, 25, 42.00000000000000000, #297 ) ;
#189 = ORIENTED_EDGE ( 'NONE', *, *, #13, .T. ) ;
#190 = CARTESIAN_POINT ( 'NONE',  ( 0.000000000000000000, 0.000000000000000000, 5.199999999999996625 ) ) ;
#191 = CARTESIAN_POINT ( 'NONE',  ( 5.699999999999999289, 0.000000000000000000, 5.199999999999996625 ) ) ;
#192 = AXIS2_PLACEMENT_3D ( 'NONE', #2, #57, #167 ) ;
#193 = CARTESIAN_POINT ( 'NONE',  ( -5.500000000000000000, 0.000000000000000000, 130.0000000000000000 ) ) ;
#194 = CARTESIAN_POINT ( 'NONE',  ( 0.000000000000000000, 0.000000000000000000, 130.0000000000000000 ) ) ;
#195 = AXIS2_PLACEMENT_3D ( 'NONE', #184, #92, #73 ) ;
#196 = CARTESIAN_POINT ( 'NONE',  ( 5.699999999999999289, 0.000000000000000000, 4.999999999999998224 ) ) ;
#197 = CC_DESIGN_APPROVAL ( #205, ( #98 ) ) ;
#198 = COORDINATED_UNIVERSAL_TIME_OFFSET ( 1, 0, .AHEAD. ) ;
#199 = CIRCLE ( 'NONE', #195, 8.000000000000000000 ) ;
#200 = DATE_AND_TIME ( #268, #282 ) ;
#201 = MECHANICAL_CONTEXT ( 'NONE', #186, 'mechanical' ) ;
#202 = VERTEX_POINT ( 'NONE', #193 ) ;
#203 = PERSON_AND_ORGANIZATION ( #103, #183 ) ;
#204 = VERTEX_POINT ( 'NONE', #33 ) ;
#205 = APPROVAL ( #14, 'NEURÈENÝ' ) ;
#206 = CARTESIAN_POINT ( 'NONE',  ( 0.000000000000000000, 0.000000000000000000, 5.000000000000000000 ) ) ;
#207 = PRODUCT_RELATED_PRODUCT_CATEGORY ( 'detail', '', ( #133 ) ) ;
#208 = DIRECTION ( 'NONE',  ( 1.000000000000000000, 0.000000000000000000, 0.000000000000000000 ) ) ;
#209 = EDGE_CURVE ( 'NONE', #250, #163, #211, .T. ) ;
#210 = DIRECTION ( 'NONE',  ( 0.000000000000000000, 0.000000000000000000, 1.000000000000000000 ) ) ;
#211 = CIRCLE ( 'NONE', #294, 8.000000000000000000 ) ;
#212 = LINE ( 'NONE', #158, #34 ) ;
#213 = EDGE_CURVE ( 'NONE', #204, #202, #257, .T. ) ;
#214 = DIRECTION ( 'NONE',  ( 0.000000000000000000, 0.000000000000000000, 1.000000000000000000 ) ) ;
#215 = VECTOR ( 'NONE', #91, 1000.000000000000000 ) ;
#216 = DIRECTION ( 'NONE',  ( -1.000000000000000000, 0.000000000000000000, 0.000000000000000000 ) ) ;
#217 = DIRECTION ( 'NONE',  ( 1.000000000000000000, 0.000000000000000000, -0.000000000000000000 ) ) ;
#218 = APPROVAL_PERSON_ORGANIZATION ( #149, #151, #35 ) ;
#219 = DIRECTION ( 'NONE',  ( -1.000000000000000000, 0.000000000000000000, 0.000000000000000000 ) ) ;
#220 = AXIS2_PLACEMENT_3D ( 'NONE', #93, #253, #52 ) ;
#221 = LINE ( 'NONE', #169, #274 ) ;
#222 = APPROVAL_ROLE ( '' ) ;
#223 = CLOSED_SHELL ( 'NONE', ( #117, #122, #265, #231, #177, #8, #263, #161, #31 ) ) ;
#224 = COORDINATED_UNIVERSAL_TIME_OFFSET ( 1, 0, .AHEAD. ) ;
#225 = DATE_TIME_ROLE ( 'creation_date' ) ;
#226 = ORIENTED_EDGE ( 'NONE', *, *, #13, .F. ) ;
#227 = VERTEX_POINT ( 'NONE', #196 ) ;
#228 = CC_DESIGN_PERSON_AND_ORGANIZATION_ASSIGNMENT ( #64, #152, ( #98 ) ) ;
#229 = EDGE_LOOP ( 'NONE', ( #154, #63 ) ) ;
#230 = ORIENTED_EDGE ( 'NONE', *, *, #209, .T. ) ;
#231 = ADVANCED_FACE ( 'NONE', ( #95 ), #256, .T. ) ;
#232 = EDGE_CURVE ( 'NONE', #248, #298, #104, .T. ) ;
#233 = EDGE_LOOP ( 'NONE', ( #226, #137, #72, #181 ) ) ;
#234 = TOROIDAL_SURFACE ( 'NONE', #101, 5.699999999999999289, 0.2000000000000000111 ) ;
#235 = DIRECTION ( 'NONE',  ( 0.000000000000000000, 0.000000000000000000, 1.000000000000000000 ) ) ;
#236 = EDGE_CURVE ( 'NONE', #150, #163, #221, .T. ) ;
#237 = DIRECTION ( 'NONE',  ( -0.000000000000000000, -0.000000000000000000, -1.000000000000000000 ) ) ;
#238 = DIRECTION ( 'NONE',  ( 0.000000000000000000, -1.000000000000000000, 0.000000000000000000 ) ) ;
#239 = DIRECTION ( 'NONE',  ( -1.000000000000000000, 0.000000000000000000, 0.000000000000000000 ) ) ;
#240 = AXIS2_PLACEMENT_3D ( 'NONE', #124, #119, #166 ) ;
#241 = CARTESIAN_POINT ( 'NONE',  ( 0.000000000000000000, 0.000000000000000000, 130.0000000000000000 ) ) ;
#242 = DIRECTION ( 'NONE',  ( 0.000000000000000000, 0.000000000000000000, 1.000000000000000000 ) ) ;
#243 = ORIENTED_EDGE ( 'NONE', *, *, #170, .F. ) ;
#244 =( NAMED_UNIT ( * ) PLANE_ANGLE_UNIT ( ) SI_UNIT ( $, .RADIAN. ) );
#245 =( NAMED_UNIT ( * ) SI_UNIT ( $, .STERADIAN. ) SOLID_ANGLE_UNIT ( ) );
#246 = ORIENTED_EDGE ( 'NONE', *, *, #105, .T. ) ;
#247 = PERSON_AND_ORGANIZATION_ROLE ( 'design_supplier' ) ;
#248 = VERTEX_POINT ( 'NONE', #262 ) ;
#249 = CARTESIAN_POINT ( 'NONE',  ( 0.000000000000000000, 0.000000000000000000, 0.000000000000000000 ) ) ;
#250 = VERTEX_POINT ( 'NONE', #99 ) ;
#251 = CARTESIAN_POINT ( 'NONE',  ( 5.500000000000000000, 6.735557395310442023E-16, 5.199999999999996625 ) ) ;
#252 = FACE_OUTER_BOUND ( 'NONE', #300, .T. ) ;
#253 = DIRECTION ( 'NONE',  ( 0.000000000000000000, 0.000000000000000000, 1.000000000000000000 ) ) ;
#254 = CIRCLE ( 'NONE', #125, 5.699999999999999289 ) ;
#255 = CC_DESIGN_PERSON_AND_ORGANIZATION_ASSIGNMENT ( #60, #11, ( #133 ) ) ;
#256 = CYLINDRICAL_SURFACE ( 'NONE', #240, 8.000000000000000000 ) ;
#257 = CIRCLE ( 'NONE', #192, 5.500000000000000000 ) ;
#258 = CIRCLE ( 'NONE', #59, 5.500000000000000000 ) ;
#259 = CARTESIAN_POINT ( 'NONE',  ( 0.000000000000000000, 0.000000000000000000, 5.000000000000000000 ) ) ;
#260 = EDGE_CURVE ( 'NONE', #109, #227, #6, .T. ) ;
#261 = DIRECTION ( 'NONE',  ( -0.000000000000000000, -0.000000000000000000, -1.000000000000000000 ) ) ;
#262 = CARTESIAN_POINT ( 'NONE',  ( -5.500000000000000000, 0.000000000000000000, 5.199999999999996625 ) ) ;
#263 = ADVANCED_FACE ( 'NONE', ( #78 ), #307, .T. ) ;
#264 = DIRECTION ( 'NONE',  ( 1.000000000000000000, 0.000000000000000000, 0.000000000000000000 ) ) ;
#265 = ADVANCED_FACE ( 'NONE', ( #3 ), #120, .T. ) ;
#266 = PERSON_AND_ORGANIZATION_ROLE ( 'creator' ) ;
#267 = AXIS2_PLACEMENT_3D ( 'NONE', #190, #235, #208 ) ;
#268 = CALENDAR_DATE ( 2022, 7, 7 ) ;
#269 = CC_DESIGN_APPROVAL ( #151, ( #289 ) ) ;
#270 = DIRECTION ( 'NONE',  ( 1.000000000000000000, 0.000000000000000000, 0.000000000000000000 ) ) ;
#271 = DATE_AND_TIME ( #85, #188 ) ;
#272 = EDGE_LOOP ( 'NONE', ( #187, #114 ) ) ;
#273 = ORIENTED_EDGE ( 'NONE', *, *, #287, .F. ) ;
#274 = VECTOR ( 'NONE', #142, 1000.000000000000000 ) ;
#275 = DIRECTION ( 'NONE',  ( 1.000000000000000000, 0.000000000000000000, -0.000000000000000000 ) ) ;
#276 = DIRECTION ( 'NONE',  ( 1.000000000000000000, 0.000000000000000000, 0.000000000000000000 ) ) ;
#277 = EDGE_LOOP ( 'NONE', ( #111, #273, #185, #68 ) ) ;
#278 = AXIS2_PLACEMENT_3D ( 'NONE', #26, #261, #216 ) ;
#279 = PLANE ( 'NONE',  #285 ) ;
#280 = CARTESIAN_POINT ( 'NONE',  ( -8.000000000000000000, 0.000000000000000000, 5.000000000000000000 ) ) ;
#281 = DIRECTION ( 'NONE',  ( 1.000000000000000000, 0.000000000000000000, 0.000000000000000000 ) ) ;
#282 = LOCAL_TIME ( 14, 25, 42.00000000000000000, #9 ) ;
#283 = DIRECTION ( 'NONE',  ( -1.000000000000000000, 1.224646799147353454E-16, 0.000000000000000000 ) ) ;
#284 = FACE_OUTER_BOUND ( 'NONE', #229, .T. ) ;
#285 = AXIS2_PLACEMENT_3D ( 'NONE', #74, #71, #275 ) ;
#286 = DIRECTION ( 'NONE',  ( 0.000000000000000000, 0.000000000000000000, 1.000000000000000000 ) ) ;
#287 = EDGE_CURVE ( 'NONE', #109, #248, #258, .T. ) ;
#288 = EDGE_CURVE ( 'NONE', #248, #109, #157, .T. ) ;
#289 = PRODUCT_DEFINITION_FORMATION_WITH_SPECIFIED_SOURCE ( 'LIBOVOLNÝ', '', #133, .NOT_KNOWN. ) ;
#290 = CC_DESIGN_PERSON_AND_ORGANIZATION_ASSIGNMENT ( #39, #130, ( #165 ) ) ;
#291 = CALENDAR_DATE ( 2022, 7, 7 ) ;
#292 = CIRCLE ( 'NONE', #220, 8.000000000000000000 ) ;
#293 = CALENDAR_DATE ( 2022, 7, 7 ) ;
#294 = AXIS2_PLACEMENT_3D ( 'NONE', #75, #102, #264 ) ;
#295 = APPROVAL_DATE_TIME ( #153, #144 ) ;
#296 = EDGE_LOOP ( 'NONE', ( #45, #246 ) ) ;
#297 = COORDINATED_UNIVERSAL_TIME_OFFSET ( 1, 0, .AHEAD. ) ;
#298 = VERTEX_POINT ( 'NONE', #56 ) ;
#299 = TOROIDAL_SURFACE ( 'NONE', #267, 5.699999999999999289, 0.2000000000000000111 ) ;
#300 = EDGE_LOOP ( 'NONE', ( #84, #156, #86, #21 ) ) ;
#301 = DIRECTION ( 'NONE',  ( 0.000000000000000000, 0.000000000000000000, 1.000000000000000000 ) ) ;
#302 = CARTESIAN_POINT ( 'NONE',  ( 0.000000000000000000, 0.000000000000000000, 5.199999999999996625 ) ) ;
#303 = CYLINDRICAL_SURFACE ( 'NONE', #30, 5.500000000000000000 ) ;
#304 = CARTESIAN_POINT ( 'NONE',  ( 0.000000000000000000, 0.000000000000000000, 130.0000000000000000 ) ) ;
#305 = DIRECTION ( 'NONE',  ( 0.000000000000000000, 0.000000000000000000, 1.000000000000000000 ) ) ;
#306 = CC_DESIGN_PERSON_AND_ORGANIZATION_ASSIGNMENT ( #203, #247, ( #289 ) ) ;
#307 = CYLINDRICAL_SURFACE ( 'NONE', #89, 5.500000000000000000 ) ;
ENDSEC;
END-ISO-10303-21;
