ISO-10303-21;
HEADER;
FILE_DESCRIPTION (( 'STEP AP203' ),
    '1' );
FILE_NAME ('8d3d.STEP',
    '2022-07-07T12:22:51',
    ( '' ),
    ( '' ),
    'SwSTEP 2.0',
    'SolidWorks 2019',
    '' );
FILE_SCHEMA (( 'CONFIG_CONTROL_DESIGN' ));
ENDSEC;

DATA;
#1 =( NAMED_UNIT ( * ) PLANE_ANGLE_UNIT ( ) SI_UNIT ( $, .RADIAN. ) );
#2 = PERSON_AND_ORGANIZATION ( #73, #287 ) ;
#3 = CIRCLE ( 'NONE', #281, 0.1999999999999996503 ) ;
#4 = ADVANCED_FACE ( 'NONE', ( #131 ), #70, .F. ) ;
#5 = APPROVAL_STATUS ( 'not_yet_approved' ) ;
#6 = CALENDAR_DATE ( 2022, 7, 7 ) ;
#7 = EDGE_LOOP ( 'NONE', ( #160, #115 ) ) ;
#8 = ORIENTED_EDGE ( 'NONE', *, *, #173, .T. ) ;
#9 = EDGE_CURVE ( 'NONE', #138, #42, #14, .T. ) ;
#10 = ORIENTED_EDGE ( 'NONE', *, *, #169, .T. ) ;
#11 = SECURITY_CLASSIFICATION ( '', '', #31 ) ;
#12 = CARTESIAN_POINT ( 'NONE',  ( 0.000000000000000000, 0.000000000000000000, 7.000000000000000000 ) ) ;
#13 = ORIENTED_EDGE ( 'NONE', *, *, #97, .T. ) ;
#14 = LINE ( 'NONE', #45, #119 ) ;
#15 = ORIENTED_EDGE ( 'NONE', *, *, #43, .F. ) ;
#16 = EDGE_LOOP ( 'NONE', ( #104, #296 ) ) ;
#17 = LOCAL_TIME ( 14, 22, 51.00000000000000000, #244 ) ;
#18 = EDGE_LOOP ( 'NONE', ( #15, #208, #85, #64 ) ) ;
#19 = ADVANCED_BREP_SHAPE_REPRESENTATION ( '8d3d', ( #38, #136 ), #121 ) ;
#20 = APPLICATION_CONTEXT ( 'configuration controlled 3d designs of mechanical parts and assemblies' ) ;
#21 = AXIS2_PLACEMENT_3D ( 'NONE', #143, #24, #50 ) ;
#22 = DIRECTION ( 'NONE',  ( 1.000000000000000000, 0.000000000000000000, -0.000000000000000000 ) ) ;
#23 = EDGE_CURVE ( 'NONE', #232, #266, #176, .T. ) ;
#24 = DIRECTION ( 'NONE',  ( 0.000000000000000000, 0.000000000000000000, 1.000000000000000000 ) ) ;
#25 = LOCAL_TIME ( 14, 22, 51.00000000000000000, #178 ) ;
#26 = CARTESIAN_POINT ( 'NONE',  ( 11.00000000000000000, 1.347111479062088405E-15, 7.000000000000000000 ) ) ;
#27 =( LENGTH_UNIT ( ) NAMED_UNIT ( * ) SI_UNIT ( .MILLI., .METRE. ) );
#28 = PERSON_AND_ORGANIZATION ( #73, #287 ) ;
#29 = VECTOR ( 'NONE', #52, 1000.000000000000000 ) ;
#30 = APPROVAL_ROLE ( '' ) ;
#31 = SECURITY_CLASSIFICATION_LEVEL ( 'unclassified' ) ;
#32 = EDGE_CURVE ( 'NONE', #254, #42, #171, .T. ) ;
#33 = DIRECTION ( 'NONE',  ( 1.000000000000000000, 0.000000000000000000, 0.000000000000000000 ) ) ;
#34 = DATE_AND_TIME ( #6, #25 ) ;
#35 = ORIENTED_EDGE ( 'NONE', *, *, #127, .T. ) ;
#36 = EDGE_CURVE ( 'NONE', #84, #59, #93, .T. ) ;
#37 = VERTEX_POINT ( 'NONE', #295 ) ;
#38 = MANIFOLD_SOLID_BREP ( 'Zaoblit1', #81 ) ;
#39 = EDGE_LOOP ( 'NONE', ( #215, #113, #248, #294 ) ) ;
#40 = FACE_OUTER_BOUND ( 'NONE', #112, .T. ) ;
#41 = ORIENTED_EDGE ( 'NONE', *, *, #150, .T. ) ;
#42 = VERTEX_POINT ( 'NONE', #161 ) ;
#43 = EDGE_CURVE ( 'NONE', #138, #37, #162, .T. ) ;
#44 = ORIENTED_EDGE ( 'NONE', *, *, #9, .F. ) ;
#45 = CARTESIAN_POINT ( 'NONE',  ( 7.000000000000000000, 8.572527594031473190E-16, 107.0000000000000142 ) ) ;
#46 = PLANE ( 'NONE',  #276 ) ;
#47 = CC_DESIGN_PERSON_AND_ORGANIZATION_ASSIGNMENT ( #28, #183, ( #11 ) ) ;
#48 = DIRECTION ( 'NONE',  ( 1.000000000000000000, 0.000000000000000000, 0.000000000000000000 ) ) ;
#49 = DIRECTION ( 'NONE',  ( 1.000000000000000000, 0.000000000000000000, 0.000000000000000000 ) ) ;
#50 = DIRECTION ( 'NONE',  ( 1.000000000000000000, 0.000000000000000000, 0.000000000000000000 ) ) ;
#51 = VECTOR ( 'NONE', #198, 1000.000000000000000 ) ;
#52 = DIRECTION ( 'NONE',  ( -0.000000000000000000, -0.000000000000000000, -1.000000000000000000 ) ) ;
#53 = APPROVAL ( #57, 'NEURÈENÝ' ) ;
#54 = PERSON_AND_ORGANIZATION_ROLE ( 'design_owner' ) ;
#55 = CIRCLE ( 'NONE', #269, 7.200000000000000178 ) ;
#56 = CALENDAR_DATE ( 2022, 7, 7 ) ;
#57 = APPROVAL_STATUS ( 'not_yet_approved' ) ;
#58 = APPROVAL_DATE_TIME ( #226, #53 ) ;
#59 = VERTEX_POINT ( 'NONE', #89 ) ;
#60 = EDGE_LOOP ( 'NONE', ( #44, #137, #8, #252 ) ) ;
#61 = CIRCLE ( 'NONE', #87, 11.00000000000000000 ) ;
#62 = EDGE_LOOP ( 'NONE', ( #108, #107, #165, #212 ) ) ;
#63 = DIRECTION ( 'NONE',  ( -0.000000000000000000, -0.000000000000000000, -1.000000000000000000 ) ) ;
#64 = ORIENTED_EDGE ( 'NONE', *, *, #173, .F. ) ;
#65 = CYLINDRICAL_SURFACE ( 'NONE', #275, 11.00000000000000000 ) ;
#66 = ADVANCED_FACE ( 'NONE', ( #270, #40 ), #268, .T. ) ;
#67 = AXIS2_PLACEMENT_3D ( 'NONE', #12, #63, #111 ) ;
#68 = DIRECTION ( 'NONE',  ( 0.000000000000000000, 0.000000000000000000, 1.000000000000000000 ) ) ;
#69 = LINE ( 'NONE', #274, #51 ) ;
#70 = TOROIDAL_SURFACE ( 'NONE', #297, 7.200000000000000178, 0.2000000000000000111 ) ;
#71 = LOCAL_TIME ( 14, 22, 51.00000000000000000, #151 ) ;
#72 = DIRECTION ( 'NONE',  ( 0.000000000000000000, 0.000000000000000000, 1.000000000000000000 ) ) ;
#73 = PERSON ( 'NEURÈENÝ', 'NEURÈENÝ', 'NEURÈENÝ', ('NEURÈENÝ'), ('NEURÈENÝ'), ('NEURÈENÝ') ) ;
#74 = CARTESIAN_POINT ( 'NONE',  ( 0.000000000000000000, 0.000000000000000000, 7.000000000000000000 ) ) ;
#75 = DIRECTION ( 'NONE',  ( 1.000000000000000000, 0.000000000000000000, -0.000000000000000000 ) ) ;
#76 = CARTESIAN_POINT ( 'NONE',  ( 7.200000000000000178, 0.000000000000000000, 6.999999999999999112 ) ) ;
#77 = VECTOR ( 'NONE', #117, 1000.000000000000000 ) ;
#78 = CC_DESIGN_DATE_AND_TIME_ASSIGNMENT ( #155, #152, ( #11 ) ) ;
#79 = APPLICATION_PROTOCOL_DEFINITION ( 'international standard', 'config_control_design', 1994, #20 ) ;
#80 = PERSON_AND_ORGANIZATION_ROLE ( 'creator' ) ;
#81 = CLOSED_SHELL ( 'NONE', ( #156, #261, #91, #106, #66, #197, #235, #184, #4 ) ) ;
#82 = DATE_AND_TIME ( #227, #71 ) ;
#83 = EDGE_LOOP ( 'NONE', ( #292, #211, #132, #187 ) ) ;
#84 = VERTEX_POINT ( 'NONE', #233 ) ;
#85 = ORIENTED_EDGE ( 'NONE', *, *, #123, .T. ) ;
#86 = DIRECTION ( 'NONE',  ( 0.000000000000000000, 0.000000000000000000, 1.000000000000000000 ) ) ;
#87 = AXIS2_PLACEMENT_3D ( 'NONE', #238, #96, #92 ) ;
#88 = CARTESIAN_POINT ( 'NONE',  ( 0.000000000000000000, 0.000000000000000000, 107.0000000000000142 ) ) ;
#89 = CARTESIAN_POINT ( 'NONE',  ( 11.00000000000000000, 1.347111479062088405E-15, 0.000000000000000000 ) ) ;
#90 = DIRECTION ( 'NONE',  ( -1.000000000000000000, 0.000000000000000000, 0.000000000000000000 ) ) ;
#91 = ADVANCED_FACE ( 'NONE', ( #231 ), #65, .T. ) ;
#92 = DIRECTION ( 'NONE',  ( 1.000000000000000000, 0.000000000000000000, 0.000000000000000000 ) ) ;
#93 = CIRCLE ( 'NONE', #134, 11.00000000000000000 ) ;
#94 = APPROVAL_PERSON_ORGANIZATION ( #207, #146, #157 ) ;
#95 = CARTESIAN_POINT ( 'NONE',  ( 7.200000000000000178, 0.000000000000000000, 7.199999999999998401 ) ) ;
#96 = DIRECTION ( 'NONE',  ( 0.000000000000000000, 0.000000000000000000, 1.000000000000000000 ) ) ;
#97 = EDGE_CURVE ( 'NONE', #59, #84, #302, .T. ) ;
#98 = CARTESIAN_POINT ( 'NONE',  ( -7.000000000000000000, 0.000000000000000000, 7.199999999999998401 ) ) ;
#99 = APPLICATION_CONTEXT ( 'configuration controlled 3d designs of mechanical parts and assemblies' ) ;
#100 = CARTESIAN_POINT ( 'NONE',  ( -11.00000000000000000, 0.000000000000000000, 7.000000000000000000 ) ) ;
#101 = AXIS2_PLACEMENT_3D ( 'NONE', #174, #277, #75 ) ;
#102 = CC_DESIGN_PERSON_AND_ORGANIZATION_ASSIGNMENT ( #245, #128, ( #120 ) ) ;
#103 = APPROVAL_ROLE ( '' ) ;
#104 = ORIENTED_EDGE ( 'NONE', *, *, #36, .F. ) ;
#105 = CARTESIAN_POINT ( 'NONE',  ( 0.000000000000000000, 0.000000000000000000, 0.000000000000000000 ) ) ;
#106 = ADVANCED_FACE ( 'NONE', ( #247 ), #133, .T. ) ;
#107 = ORIENTED_EDGE ( 'NONE', *, *, #214, .T. ) ;
#108 = ORIENTED_EDGE ( 'NONE', *, *, #32, .F. ) ;
#109 = AXIS2_PLACEMENT_3D ( 'NONE', #192, #68, #249 ) ;
#110 = CIRCLE ( 'NONE', #142, 0.1999999999999996503 ) ;
#111 = DIRECTION ( 'NONE',  ( -1.000000000000000000, 0.000000000000000000, 0.000000000000000000 ) ) ;
#112 = EDGE_LOOP ( 'NONE', ( #41, #35 ) ) ;
#113 = ORIENTED_EDGE ( 'NONE', *, *, #123, .F. ) ;
#114 = CIRCLE ( 'NONE', #251, 7.000000000000000000 ) ;
#115 = ORIENTED_EDGE ( 'NONE', *, *, #43, .T. ) ;
#116 = ORIENTED_EDGE ( 'NONE', *, *, #283, .F. ) ;
#117 = DIRECTION ( 'NONE',  ( -0.000000000000000000, -0.000000000000000000, -1.000000000000000000 ) ) ;
#118 = FACE_OUTER_BOUND ( 'NONE', #62, .T. ) ;
#119 = VECTOR ( 'NONE', #189, 1000.000000000000000 ) ;
#120 = PRODUCT_DEFINITION_FORMATION_WITH_SPECIFIED_SOURCE ( 'LIBOVOLNÝ', '', #182, .NOT_KNOWN. ) ;
#121 =( GEOMETRIC_REPRESENTATION_CONTEXT ( 3 ) GLOBAL_UNCERTAINTY_ASSIGNED_CONTEXT ( ( #272 ) ) GLOBAL_UNIT_ASSIGNED_CONTEXT ( ( #27, #1, #289 ) ) REPRESENTATION_CONTEXT ( 'NONE', 'WORKASPACE' ) );
#122 = CARTESIAN_POINT ( 'NONE',  ( 0.000000000000000000, 0.000000000000000000, 7.199999999999998401 ) ) ;
#123 = EDGE_CURVE ( 'NONE', #42, #254, #284, .T. ) ;
#124 = CARTESIAN_POINT ( 'NONE',  ( -7.200000000000000178, 8.817456953860942303E-16, 6.999999999999999112 ) ) ;
#125 = CARTESIAN_POINT ( 'NONE',  ( 7.000000000000000000, 8.572527594031473190E-16, 107.0000000000000142 ) ) ;
#126 = AXIS2_PLACEMENT_3D ( 'NONE', #221, #304, #305 ) ;
#127 = EDGE_CURVE ( 'NONE', #228, #250, #61, .T. ) ;
#128 = PERSON_AND_ORGANIZATION_ROLE ( 'design_supplier' ) ;
#129 = PERSON_AND_ORGANIZATION ( #73, #287 ) ;
#130 = EDGE_CURVE ( 'NONE', #37, #138, #114, .T. ) ;
#131 = FACE_OUTER_BOUND ( 'NONE', #39, .T. ) ;
#132 = ORIENTED_EDGE ( 'NONE', *, *, #283, .T. ) ;
#133 = CYLINDRICAL_SURFACE ( 'NONE', #67, 11.00000000000000000 ) ;
#134 = AXIS2_PLACEMENT_3D ( 'NONE', #139, #166, #265 ) ;
#135 = CC_DESIGN_PERSON_AND_ORGANIZATION_ASSIGNMENT ( #224, #54, ( #182 ) ) ;
#136 = AXIS2_PLACEMENT_3D ( 'NONE', #105, #285, #33 ) ;
#137 = ORIENTED_EDGE ( 'NONE', *, *, #130, .F. ) ;
#138 = VERTEX_POINT ( 'NONE', #125 ) ;
#139 = CARTESIAN_POINT ( 'NONE',  ( 0.000000000000000000, 0.000000000000000000, 0.000000000000000000 ) ) ;
#140 = ORIENTED_EDGE ( 'NONE', *, *, #278, .T. ) ;
#141 = DIRECTION ( 'NONE',  ( 1.000000000000000000, 0.000000000000000000, 0.000000000000000000 ) ) ;
#142 = AXIS2_PLACEMENT_3D ( 'NONE', #149, #301, #306 ) ;
#143 = CARTESIAN_POINT ( 'NONE',  ( 0.000000000000000000, 0.000000000000000000, 7.199999999999998401 ) ) ;
#144 = DIRECTION ( 'NONE',  ( -0.000000000000000000, -0.000000000000000000, -1.000000000000000000 ) ) ;
#145 = PLANE ( 'NONE',  #101 ) ;
#146 = APPROVAL ( #5, 'NEURÈENÝ' ) ;
#147 = AXIS2_PLACEMENT_3D ( 'NONE', #122, #222, #262 ) ;
#148 = CARTESIAN_POINT ( 'NONE',  ( -7.000000000000000000, 0.000000000000000000, 107.0000000000000142 ) ) ;
#149 = CARTESIAN_POINT ( 'NONE',  ( -7.200000000000000178, 8.817456953860942303E-16, 7.199999999999998401 ) ) ;
#150 = EDGE_CURVE ( 'NONE', #250, #228, #158, .T. ) ;
#151 = COORDINATED_UNIVERSAL_TIME_OFFSET ( 1, 0, .AHEAD. ) ;
#152 = DATE_TIME_ROLE ( 'classification_date' ) ;
#153 = CC_DESIGN_APPROVAL ( #146, ( #120 ) ) ;
#154 = APPLICATION_PROTOCOL_DEFINITION ( 'international standard', 'config_control_design', 1994, #99 ) ;
#155 = DATE_AND_TIME ( #56, #196 ) ;
#156 = ADVANCED_FACE ( 'NONE', ( #118 ), #234, .F. ) ;
#157 = APPROVAL_ROLE ( '' ) ;
#158 = CIRCLE ( 'NONE', #181, 11.00000000000000000 ) ;
#159 = DIRECTION ( 'NONE',  ( 0.000000000000000000, 0.000000000000000000, 1.000000000000000000 ) ) ;
#160 = ORIENTED_EDGE ( 'NONE', *, *, #130, .T. ) ;
#161 = CARTESIAN_POINT ( 'NONE',  ( 7.000000000000000000, 8.572527594031473190E-16, 7.199999999999998401 ) ) ;
#162 = CIRCLE ( 'NONE', #242, 7.000000000000000000 ) ;
#163 = APPROVAL_PERSON_ORGANIZATION ( #129, #267, #103 ) ;
#164 = DESIGN_CONTEXT ( 'detailed design', #20, 'design' ) ;
#165 = ORIENTED_EDGE ( 'NONE', *, *, #278, .F. ) ;
#166 = DIRECTION ( 'NONE',  ( 0.000000000000000000, 0.000000000000000000, 1.000000000000000000 ) ) ;
#167 = ORIENTED_EDGE ( 'NONE', *, *, #127, .F. ) ;
#168 = CARTESIAN_POINT ( 'NONE',  ( 0.000000000000000000, 0.000000000000000000, 7.000000000000000000 ) ) ;
#169 = EDGE_CURVE ( 'NONE', #228, #59, #69, .T. ) ;
#170 = DIRECTION ( 'NONE',  ( 0.000000000000000000, 0.000000000000000000, -1.000000000000000000 ) ) ;
#171 = CIRCLE ( 'NONE', #216, 7.000000000000000000 ) ;
#172 = DIRECTION ( 'NONE',  ( -1.000000000000000000, 0.000000000000000000, 0.000000000000000000 ) ) ;
#173 = EDGE_CURVE ( 'NONE', #37, #254, #279, .T. ) ;
#174 = CARTESIAN_POINT ( 'NONE',  ( 0.000000000000000000, 0.000000000000000000, 107.0000000000000142 ) ) ;
#175 = FACE_OUTER_BOUND ( 'NONE', #16, .T. ) ;
#176 = CIRCLE ( 'NONE', #258, 7.200000000000000178 ) ;
#177 = DIRECTION ( 'NONE',  ( -0.000000000000000000, -0.000000000000000000, -1.000000000000000000 ) ) ;
#178 = COORDINATED_UNIVERSAL_TIME_OFFSET ( 1, 0, .AHEAD. ) ;
#179 = APPROVAL_DATE_TIME ( #34, #267 ) ;
#180 = PERSON_AND_ORGANIZATION_ROLE ( 'creator' ) ;
#181 = AXIS2_PLACEMENT_3D ( 'NONE', #236, #257, #303 ) ;
#182 = PRODUCT ( '8d3d', '8d3d', '', ( #206 ) ) ;
#183 = PERSON_AND_ORGANIZATION_ROLE ( 'classification_officer' ) ;
#184 = ADVANCED_FACE ( 'NONE', ( #218 ), #145, .T. ) ;
#185 = CALENDAR_DATE ( 2022, 7, 7 ) ;
#186 = EDGE_CURVE ( 'NONE', #42, #266, #3, .T. ) ;
#187 = ORIENTED_EDGE ( 'NONE', *, *, #36, .T. ) ;
#188 = DIRECTION ( 'NONE',  ( 1.000000000000000000, 0.000000000000000000, 0.000000000000000000 ) ) ;
#189 = DIRECTION ( 'NONE',  ( -0.000000000000000000, -0.000000000000000000, -1.000000000000000000 ) ) ;
#190 = DIRECTION ( 'NONE',  ( 0.000000000000000000, 0.000000000000000000, 1.000000000000000000 ) ) ;
#191 = AXIS2_PLACEMENT_3D ( 'NONE', #280, #144, #172 ) ;
#192 = CARTESIAN_POINT ( 'NONE',  ( 0.000000000000000000, 0.000000000000000000, 7.000000000000000000 ) ) ;
#193 = CC_DESIGN_DATE_AND_TIME_ASSIGNMENT ( #307, #286, ( #290 ) ) ;
#194 = CARTESIAN_POINT ( 'NONE',  ( 0.000000000000000000, 0.000000000000000000, 0.000000000000000000 ) ) ;
#195 = FACE_OUTER_BOUND ( 'NONE', #60, .T. ) ;
#196 = LOCAL_TIME ( 14, 22, 51.00000000000000000, #264 ) ;
#197 = ADVANCED_FACE ( 'NONE', ( #175 ), #46, .F. ) ;
#198 = DIRECTION ( 'NONE',  ( -0.000000000000000000, -0.000000000000000000, -1.000000000000000000 ) ) ;
#199 = CARTESIAN_POINT ( 'NONE',  ( 0.000000000000000000, 0.000000000000000000, 107.0000000000000142 ) ) ;
#200 = FACE_OUTER_BOUND ( 'NONE', #18, .T. ) ;
#201 = CARTESIAN_POINT ( 'NONE',  ( -11.00000000000000000, 0.000000000000000000, 7.000000000000000000 ) ) ;
#202 = SHAPE_DEFINITION_REPRESENTATION ( #256, #19 ) ;
#203 = PERSON_AND_ORGANIZATION ( #73, #287 ) ;
#204 = AXIS2_PLACEMENT_3D ( 'NONE', #194, #159, #273 ) ;
#205 = APPROVAL_PERSON_ORGANIZATION ( #2, #53, #30 ) ;
#206 = MECHANICAL_CONTEXT ( 'NONE', #99, 'mechanical' ) ;
#207 = PERSON_AND_ORGANIZATION ( #73, #287 ) ;
#208 = ORIENTED_EDGE ( 'NONE', *, *, #9, .T. ) ;
#209 = CARTESIAN_POINT ( 'NONE',  ( 0.000000000000000000, 0.000000000000000000, 7.199999999999998401 ) ) ;
#210 = CC_DESIGN_APPROVAL ( #53, ( #290 ) ) ;
#211 = ORIENTED_EDGE ( 'NONE', *, *, #150, .F. ) ;
#212 = ORIENTED_EDGE ( 'NONE', *, *, #186, .F. ) ;
#213 = DIRECTION ( 'NONE',  ( -0.000000000000000000, -0.000000000000000000, -1.000000000000000000 ) ) ;
#214 = EDGE_CURVE ( 'NONE', #254, #232, #110, .T. ) ;
#215 = ORIENTED_EDGE ( 'NONE', *, *, #214, .F. ) ;
#216 = AXIS2_PLACEMENT_3D ( 'NONE', #271, #86, #188 ) ;
#217 = EDGE_LOOP ( 'NONE', ( #167, #10, #13, #116 ) ) ;
#218 = FACE_OUTER_BOUND ( 'NONE', #7, .T. ) ;
#219 = CYLINDRICAL_SURFACE ( 'NONE', #191, 7.000000000000000000 ) ;
#220 = DIRECTION ( 'NONE',  ( 0.000000000000000000, -1.000000000000000000, 0.000000000000000000 ) ) ;
#221 = CARTESIAN_POINT ( 'NONE',  ( 0.000000000000000000, 0.000000000000000000, 107.0000000000000142 ) ) ;
#222 = DIRECTION ( 'NONE',  ( 0.000000000000000000, 0.000000000000000000, 1.000000000000000000 ) ) ;
#223 = COORDINATED_UNIVERSAL_TIME_OFFSET ( 1, 0, .AHEAD. ) ;
#224 = PERSON_AND_ORGANIZATION ( #73, #287 ) ;
#225 = APPROVAL_STATUS ( 'not_yet_approved' ) ;
#226 = DATE_AND_TIME ( #243, #17 ) ;
#227 = CALENDAR_DATE ( 2022, 7, 7 ) ;
#228 = VERTEX_POINT ( 'NONE', #26 ) ;
#229 = EDGE_LOOP ( 'NONE', ( #140, #255 ) ) ;
#230 = CC_DESIGN_APPROVAL ( #267, ( #11 ) ) ;
#231 = FACE_OUTER_BOUND ( 'NONE', #217, .T. ) ;
#232 = VERTEX_POINT ( 'NONE', #124 ) ;
#233 = CARTESIAN_POINT ( 'NONE',  ( -11.00000000000000000, 0.000000000000000000, 0.000000000000000000 ) ) ;
#234 = TOROIDAL_SURFACE ( 'NONE', #147, 7.200000000000000178, 0.2000000000000000111 ) ;
#235 = ADVANCED_FACE ( 'NONE', ( #195 ), #259, .T. ) ;
#236 = CARTESIAN_POINT ( 'NONE',  ( 0.000000000000000000, 0.000000000000000000, 7.000000000000000000 ) ) ;
#237 = LINE ( 'NONE', #201, #29 ) ;
#238 = CARTESIAN_POINT ( 'NONE',  ( 0.000000000000000000, 0.000000000000000000, 7.000000000000000000 ) ) ;
#239 = DIRECTION ( 'NONE',  ( 0.000000000000000000, 0.000000000000000000, 1.000000000000000000 ) ) ;
#240 = CC_DESIGN_PERSON_AND_ORGANIZATION_ASSIGNMENT ( #203, #80, ( #290 ) ) ;
#241 = PERSON_AND_ORGANIZATION ( #73, #287 ) ;
#242 = AXIS2_PLACEMENT_3D ( 'NONE', #88, #190, #291 ) ;
#243 = CALENDAR_DATE ( 2022, 7, 7 ) ;
#244 = COORDINATED_UNIVERSAL_TIME_OFFSET ( 1, 0, .AHEAD. ) ;
#245 = PERSON_AND_ORGANIZATION ( #73, #287 ) ;
#246 = PRODUCT_RELATED_PRODUCT_CATEGORY ( 'detail', '', ( #182 ) ) ;
#247 = FACE_OUTER_BOUND ( 'NONE', #83, .T. ) ;
#248 = ORIENTED_EDGE ( 'NONE', *, *, #186, .T. ) ;
#249 = DIRECTION ( 'NONE',  ( 1.000000000000000000, 0.000000000000000000, -0.000000000000000000 ) ) ;
#250 = VERTEX_POINT ( 'NONE', #100 ) ;
#251 = AXIS2_PLACEMENT_3D ( 'NONE', #199, #72, #49 ) ;
#252 = ORIENTED_EDGE ( 'NONE', *, *, #32, .T. ) ;
#253 = DIRECTION ( 'NONE',  ( 0.000000000000000000, 0.000000000000000000, 1.000000000000000000 ) ) ;
#254 = VERTEX_POINT ( 'NONE', #98 ) ;
#255 = ORIENTED_EDGE ( 'NONE', *, *, #23, .T. ) ;
#256 = PRODUCT_DEFINITION_SHAPE ( 'NONE', 'NONE',  #290 ) ;
#257 = DIRECTION ( 'NONE',  ( 0.000000000000000000, 0.000000000000000000, 1.000000000000000000 ) ) ;
#258 = AXIS2_PLACEMENT_3D ( 'NONE', #298, #213, #141 ) ;
#259 = CYLINDRICAL_SURFACE ( 'NONE', #126, 7.000000000000000000 ) ;
#260 = CARTESIAN_POINT ( 'NONE',  ( 0.000000000000000000, 0.000000000000000000, 0.000000000000000000 ) ) ;
#261 = ADVANCED_FACE ( 'NONE', ( #200 ), #219, .T. ) ;
#262 = DIRECTION ( 'NONE',  ( 1.000000000000000000, 0.000000000000000000, 0.000000000000000000 ) ) ;
#263 = CC_DESIGN_SECURITY_CLASSIFICATION ( #11, ( #120 ) ) ;
#264 = COORDINATED_UNIVERSAL_TIME_OFFSET ( 1, 0, .AHEAD. ) ;
#265 = DIRECTION ( 'NONE',  ( 1.000000000000000000, 0.000000000000000000, 0.000000000000000000 ) ) ;
#266 = VERTEX_POINT ( 'NONE', #76 ) ;
#267 = APPROVAL ( #225, 'NEURÈENÝ' ) ;
#268 = PLANE ( 'NONE',  #109 ) ;
#269 = AXIS2_PLACEMENT_3D ( 'NONE', #74, #177, #48 ) ;
#270 = FACE_BOUND ( 'NONE', #229, .T. ) ;
#271 = CARTESIAN_POINT ( 'NONE',  ( 0.000000000000000000, 0.000000000000000000, 7.199999999999998401 ) ) ;
#272 = UNCERTAINTY_MEASURE_WITH_UNIT (LENGTH_MEASURE( 1.000000000000000082E-05 ), #27, 'distance_accuracy_value', 'NONE');
#273 = DIRECTION ( 'NONE',  ( 1.000000000000000000, 0.000000000000000000, 0.000000000000000000 ) ) ;
#274 = CARTESIAN_POINT ( 'NONE',  ( 11.00000000000000000, 1.347111479062088405E-15, 7.000000000000000000 ) ) ;
#275 = AXIS2_PLACEMENT_3D ( 'NONE', #168, #299, #90 ) ;
#276 = AXIS2_PLACEMENT_3D ( 'NONE', #260, #239, #22 ) ;
#277 = DIRECTION ( 'NONE',  ( 0.000000000000000000, 0.000000000000000000, 1.000000000000000000 ) ) ;
#278 = EDGE_CURVE ( 'NONE', #266, #232, #55, .T. ) ;
#279 = LINE ( 'NONE', #148, #77 ) ;
#280 = CARTESIAN_POINT ( 'NONE',  ( 0.000000000000000000, 0.000000000000000000, 107.0000000000000142 ) ) ;
#281 = AXIS2_PLACEMENT_3D ( 'NONE', #95, #220, #170 ) ;
#282 = APPROVAL_DATE_TIME ( #82, #146 ) ;
#283 = EDGE_CURVE ( 'NONE', #250, #84, #237, .T. ) ;
#284 = CIRCLE ( 'NONE', #21, 7.000000000000000000 ) ;
#285 = DIRECTION ( 'NONE',  ( 0.000000000000000000, 0.000000000000000000, 1.000000000000000000 ) ) ;
#286 = DATE_TIME_ROLE ( 'creation_date' ) ;
#287 = ORGANIZATION ( 'NEURÈENÝ', 'NEURÈENÝ', '' ) ;
#288 = LOCAL_TIME ( 14, 22, 51.00000000000000000, #223 ) ;
#289 =( NAMED_UNIT ( * ) SI_UNIT ( $, .STERADIAN. ) SOLID_ANGLE_UNIT ( ) );
#290 = PRODUCT_DEFINITION ( 'NEZNÁMÝ', '', #120, #164 ) ;
#291 = DIRECTION ( 'NONE',  ( 1.000000000000000000, 0.000000000000000000, 0.000000000000000000 ) ) ;
#292 = ORIENTED_EDGE ( 'NONE', *, *, #169, .F. ) ;
#293 = DIRECTION ( 'NONE',  ( 1.000000000000000000, 0.000000000000000000, 0.000000000000000000 ) ) ;
#294 = ORIENTED_EDGE ( 'NONE', *, *, #23, .F. ) ;
#295 = CARTESIAN_POINT ( 'NONE',  ( -7.000000000000000000, 0.000000000000000000, 107.0000000000000142 ) ) ;
#296 = ORIENTED_EDGE ( 'NONE', *, *, #97, .F. ) ;
#297 = AXIS2_PLACEMENT_3D ( 'NONE', #209, #253, #293 ) ;
#298 = CARTESIAN_POINT ( 'NONE',  ( 0.000000000000000000, 0.000000000000000000, 7.000000000000000000 ) ) ;
#299 = DIRECTION ( 'NONE',  ( -0.000000000000000000, -0.000000000000000000, -1.000000000000000000 ) ) ;
#300 = CC_DESIGN_PERSON_AND_ORGANIZATION_ASSIGNMENT ( #241, #180, ( #120 ) ) ;
#301 = DIRECTION ( 'NONE',  ( 1.224646799147353207E-16, 1.000000000000000000, -0.000000000000000000 ) ) ;
#302 = CIRCLE ( 'NONE', #204, 11.00000000000000000 ) ;
#303 = DIRECTION ( 'NONE',  ( 1.000000000000000000, 0.000000000000000000, 0.000000000000000000 ) ) ;
#304 = DIRECTION ( 'NONE',  ( -0.000000000000000000, -0.000000000000000000, -1.000000000000000000 ) ) ;
#305 = DIRECTION ( 'NONE',  ( -1.000000000000000000, 0.000000000000000000, 0.000000000000000000 ) ) ;
#306 = DIRECTION ( 'NONE',  ( -1.000000000000000000, 1.224646799147358384E-16, 0.000000000000000000 ) ) ;
#307 = DATE_AND_TIME ( #185, #288 ) ;
ENDSEC;
END-ISO-10303-21;
