ISO-10303-21;
HEADER;
FILE_DESCRIPTION (( 'STEP AP203' ),
    '1' );
FILE_NAME ('3876.STEP',
    '2022-07-07T12:32:03',
    ( '' ),
    ( '' ),
    'SwSTEP 2.0',
    'SolidWorks 2019',
    '' );
FILE_SCHEMA (( 'CONFIG_CONTROL_DESIGN' ));
ENDSEC;

DATA;
#1 = APPROVAL_STATUS ( 'not_yet_approved' ) ;
#2 = EDGE_LOOP ( 'NONE', ( #287, #34 ) ) ;
#3 = APPROVAL_DATE_TIME ( #215, #32 ) ;
#4 = COORDINATED_UNIVERSAL_TIME_OFFSET ( 1, 0, .AHEAD. ) ;
#5 = VERTEX_POINT ( 'NONE', #276 ) ;
#6 = DIRECTION ( 'NONE',  ( 0.000000000000000000, 0.000000000000000000, 1.000000000000000000 ) ) ;
#7 = PERSON_AND_ORGANIZATION_ROLE ( 'creator' ) ;
#8 = VECTOR ( 'NONE', #59, 1000.000000000000000 ) ;
#9 = ORIENTED_EDGE ( 'NONE', *, *, #248, .T. ) ;
#10 = EDGE_CURVE ( 'NONE', #26, #11, #92, .T. ) ;
#11 = VERTEX_POINT ( 'NONE', #83 ) ;
#12 = ORIENTED_EDGE ( 'NONE', *, *, #264, .F. ) ;
#13 = DIRECTION ( 'NONE',  ( 0.000000000000000000, 0.000000000000000000, 1.000000000000000000 ) ) ;
#14 = CARTESIAN_POINT ( 'NONE',  ( 0.000000000000000000, 0.000000000000000000, 505.0000000000000000 ) ) ;
#15 = EDGE_CURVE ( 'NONE', #5, #29, #17, .T. ) ;
#16 = DIRECTION ( 'NONE',  ( -0.000000000000000000, -0.000000000000000000, -1.000000000000000000 ) ) ;
#17 = CIRCLE ( 'NONE', #269, 4.099999999999999645 ) ;
#18 = LINE ( 'NONE', #255, #298 ) ;
#19 = ADVANCED_FACE ( 'NONE', ( #178 ), #228, .T. ) ;
#20 = CARTESIAN_POINT ( 'NONE',  ( 0.000000000000000000, 0.000000000000000000, 5.000000000000000000 ) ) ;
#21 = CLOSED_SHELL ( 'NONE', ( #24, #183, #48, #286, #81, #152, #19, #141, #261 ) ) ;
#22 = DIRECTION ( 'NONE',  ( 1.000000000000000000, 0.000000000000000000, 0.000000000000000000 ) ) ;
#23 = COORDINATED_UNIVERSAL_TIME_OFFSET ( 1, 0, .AHEAD. ) ;
#24 = ADVANCED_FACE ( 'NONE', ( #181 ), #103, .F. ) ;
#25 = DATE_TIME_ROLE ( 'classification_date' ) ;
#26 = VERTEX_POINT ( 'NONE', #203 ) ;
#27 = CC_DESIGN_PERSON_AND_ORGANIZATION_ASSIGNMENT ( #102, #199, ( #115 ) ) ;
#28 =( NAMED_UNIT ( * ) PLANE_ANGLE_UNIT ( ) SI_UNIT ( $, .RADIAN. ) );
#29 = VERTEX_POINT ( 'NONE', #156 ) ;
#30 = DATE_AND_TIME ( #69, #74 ) ;
#31 = CARTESIAN_POINT ( 'NONE',  ( 4.099999999999999645, 5.021051876504147385E-16, 505.0000000000000000 ) ) ;
#32 = APPROVAL ( #220, 'NEURÈENÝ' ) ;
#33 = AXIS2_PLACEMENT_3D ( 'NONE', #226, #13, #297 ) ;
#34 = ORIENTED_EDGE ( 'NONE', *, *, #10, .F. ) ;
#35 = CIRCLE ( 'NONE', #272, 7.000000000000000000 ) ;
#36 = DIRECTION ( 'NONE',  ( 0.000000000000000000, 0.000000000000000000, 1.000000000000000000 ) ) ;
#37 = CARTESIAN_POINT ( 'NONE',  ( 0.000000000000000000, 0.000000000000000000, 0.000000000000000000 ) ) ;
#38 = DIRECTION ( 'NONE',  ( -0.000000000000000000, -0.000000000000000000, -1.000000000000000000 ) ) ;
#39 = TOROIDAL_SURFACE ( 'NONE', #266, 4.299999999999998934, 0.2000000000000000111 ) ;
#40 = DIRECTION ( 'NONE',  ( -0.000000000000000000, -0.000000000000000000, -1.000000000000000000 ) ) ;
#41 = CARTESIAN_POINT ( 'NONE',  ( 0.000000000000000000, 0.000000000000000000, 505.0000000000000000 ) ) ;
#42 = AXIS2_PLACEMENT_3D ( 'NONE', #143, #142, #22 ) ;
#43 = CARTESIAN_POINT ( 'NONE',  ( -7.000000000000000000, 0.000000000000000000, 5.000000000000000000 ) ) ;
#44 = DIRECTION ( 'NONE',  ( 0.000000000000000000, 0.000000000000000000, 1.000000000000000000 ) ) ;
#45 = CIRCLE ( 'NONE', #73, 7.000000000000000000 ) ;
#46 = PRODUCT ( '3876', '3876', '', ( #153 ) ) ;
#47 = PLANE ( 'NONE',  #236 ) ;
#48 = ADVANCED_FACE ( 'NONE', ( #295 ), #273, .T. ) ;
#49 = PERSON_AND_ORGANIZATION ( #284, #134 ) ;
#50 = ORIENTED_EDGE ( 'NONE', *, *, #193, .F. ) ;
#51 = CALENDAR_DATE ( 2022, 7, 7 ) ;
#52 = EDGE_CURVE ( 'NONE', #29, #107, #58, .T. ) ;
#53 = VERTEX_POINT ( 'NONE', #60 ) ;
#54 =( LENGTH_UNIT ( ) NAMED_UNIT ( * ) SI_UNIT ( .MILLI., .METRE. ) );
#55 = VECTOR ( 'NONE', #282, 1000.000000000000000 ) ;
#56 = LOCAL_TIME ( 14, 32, 3.000000000000000000, #23 ) ;
#57 = FACE_OUTER_BOUND ( 'NONE', #268, .T. ) ;
#58 = LINE ( 'NONE', #31, #8 ) ;
#59 = DIRECTION ( 'NONE',  ( -0.000000000000000000, -0.000000000000000000, -1.000000000000000000 ) ) ;
#60 = CARTESIAN_POINT ( 'NONE',  ( -4.299999999999998934, 5.265981236333617484E-16, 4.999999999999991118 ) ) ;
#61 = ORIENTED_EDGE ( 'NONE', *, *, #279, .F. ) ;
#62 = EDGE_CURVE ( 'NONE', #173, #26, #161, .T. ) ;
#63 = CIRCLE ( 'NONE', #191, 4.299999999999998934 ) ;
#64 = CARTESIAN_POINT ( 'NONE',  ( 0.000000000000000000, 0.000000000000000000, 5.000000000000000000 ) ) ;
#65 = DIRECTION ( 'NONE',  ( -0.000000000000000000, -0.000000000000000000, -1.000000000000000000 ) ) ;
#66 = DIRECTION ( 'NONE',  ( -0.000000000000000000, -0.000000000000000000, -1.000000000000000000 ) ) ;
#67 = DIRECTION ( 'NONE',  ( 0.000000000000000000, 0.000000000000000000, 1.000000000000000000 ) ) ;
#68 = DIRECTION ( 'NONE',  ( 0.000000000000000000, 0.000000000000000000, 1.000000000000000000 ) ) ;
#69 = CALENDAR_DATE ( 2022, 7, 7 ) ;
#70 = ORIENTED_EDGE ( 'NONE', *, *, #300, .T. ) ;
#71 = PERSON_AND_ORGANIZATION_ROLE ( 'classification_officer' ) ;
#72 = ORIENTED_EDGE ( 'NONE', *, *, #239, .T. ) ;
#73 = AXIS2_PLACEMENT_3D ( 'NONE', #94, #68, #280 ) ;
#74 = LOCAL_TIME ( 14, 32, 3.000000000000000000, #267 ) ;
#75 = APPROVAL_DATE_TIME ( #288, #98 ) ;
#76 = ORIENTED_EDGE ( 'NONE', *, *, #15, .F. ) ;
#77 = COORDINATED_UNIVERSAL_TIME_OFFSET ( 1, 0, .AHEAD. ) ;
#78 = DESIGN_CONTEXT ( 'detailed design', #108, 'design' ) ;
#79 = ORIENTED_EDGE ( 'NONE', *, *, #264, .T. ) ;
#80 = APPLICATION_CONTEXT ( 'configuration controlled 3d designs of mechanical parts and assemblies' ) ;
#81 = ADVANCED_FACE ( 'NONE', ( #224, #57 ), #251, .T. ) ;
#82 = EDGE_LOOP ( 'NONE', ( #219, #162 ) ) ;
#83 = CARTESIAN_POINT ( 'NONE',  ( -7.000000000000000000, 0.000000000000000000, 0.000000000000000000 ) ) ;
#84 = DIRECTION ( 'NONE',  ( 1.000000000000000000, 0.000000000000000000, 0.000000000000000000 ) ) ;
#85 = DIRECTION ( 'NONE',  ( 0.000000000000000000, 0.000000000000000000, 1.000000000000000000 ) ) ;
#86 = DIRECTION ( 'NONE',  ( -0.000000000000000000, -0.000000000000000000, -1.000000000000000000 ) ) ;
#87 = CC_DESIGN_PERSON_AND_ORGANIZATION_ASSIGNMENT ( #99, #71, ( #101 ) ) ;
#88 = DIRECTION ( 'NONE',  ( 1.000000000000000000, 0.000000000000000000, 0.000000000000000000 ) ) ;
#89 = AXIS2_PLACEMENT_3D ( 'NONE', #207, #302, #232 ) ;
#90 = DIRECTION ( 'NONE',  ( 0.000000000000000000, 0.000000000000000000, 1.000000000000000000 ) ) ;
#91 = CYLINDRICAL_SURFACE ( 'NONE', #163, 7.000000000000000000 ) ;
#92 = CIRCLE ( 'NONE', #227, 7.000000000000000000 ) ;
#93 = CARTESIAN_POINT ( 'NONE',  ( 0.000000000000000000, 0.000000000000000000, 0.000000000000000000 ) ) ;
#94 = CARTESIAN_POINT ( 'NONE',  ( 0.000000000000000000, 0.000000000000000000, 5.000000000000000000 ) ) ;
#95 = AXIS2_PLACEMENT_3D ( 'NONE', #188, #189, #262 ) ;
#96 = DIRECTION ( 'NONE',  ( 1.000000000000000000, 0.000000000000000000, 0.000000000000000000 ) ) ;
#97 = ORIENTED_EDGE ( 'NONE', *, *, #279, .T. ) ;
#98 = APPROVAL ( #170, 'NEURÈENÝ' ) ;
#99 = PERSON_AND_ORGANIZATION ( #284, #134 ) ;
#100 = DATE_AND_TIME ( #290, #56 ) ;
#101 = SECURITY_CLASSIFICATION ( '', '', #176 ) ;
#102 = PERSON_AND_ORGANIZATION ( #284, #134 ) ;
#103 = TOROIDAL_SURFACE ( 'NONE', #274, 4.299999999999998934, 0.2000000000000000111 ) ;
#104 = EDGE_CURVE ( 'NONE', #275, #107, #235, .T. ) ;
#105 = ORIENTED_EDGE ( 'NONE', *, *, #248, .F. ) ;
#106 = APPROVAL_PERSON_ORGANIZATION ( #241, #304, #292 ) ;
#107 = VERTEX_POINT ( 'NONE', #160 ) ;
#108 = APPLICATION_CONTEXT ( 'configuration controlled 3d designs of mechanical parts and assemblies' ) ;
#109 = EDGE_LOOP ( 'NONE', ( #289, #244, #72, #296 ) ) ;
#110 = DIRECTION ( 'NONE',  ( 0.000000000000000000, 0.000000000000000000, 1.000000000000000000 ) ) ;
#111 = CARTESIAN_POINT ( 'NONE',  ( 0.000000000000000000, 0.000000000000000000, 5.000000000000000000 ) ) ;
#112 = DIRECTION ( 'NONE',  ( -1.000000000000000000, 0.000000000000000000, 0.000000000000000000 ) ) ;
#113 = DIRECTION ( 'NONE',  ( -0.000000000000000000, -0.000000000000000000, -1.000000000000000000 ) ) ;
#114 = AXIS2_PLACEMENT_3D ( 'NONE', #270, #6, #96 ) ;
#115 = PRODUCT_DEFINITION_FORMATION_WITH_SPECIFIED_SOURCE ( 'LIBOVOLNÝ', '', #46, .NOT_KNOWN. ) ;
#116 = CARTESIAN_POINT ( 'NONE',  ( 4.299999999999998934, 0.000000000000000000, 4.999999999999991118 ) ) ;
#117 = DIRECTION ( 'NONE',  ( 1.000000000000000000, 0.000000000000000000, -0.000000000000000000 ) ) ;
#118 = DIRECTION ( 'NONE',  ( 1.000000000000000000, 0.000000000000000000, 0.000000000000000000 ) ) ;
#119 = APPLICATION_PROTOCOL_DEFINITION ( 'international standard', 'config_control_design', 1994, #80 ) ;
#120 = ORIENTED_EDGE ( 'NONE', *, *, #122, .T. ) ;
#121 = APPROVAL_PERSON_ORGANIZATION ( #124, #98, #263 ) ;
#122 = EDGE_CURVE ( 'NONE', #107, #275, #208, .T. ) ;
#123 = CALENDAR_DATE ( 2022, 7, 7 ) ;
#124 = PERSON_AND_ORGANIZATION ( #284, #134 ) ;
#125 = VERTEX_POINT ( 'NONE', #116 ) ;
#126 = PERSON_AND_ORGANIZATION_ROLE ( 'design_owner' ) ;
#127 = ORIENTED_EDGE ( 'NONE', *, *, #122, .F. ) ;
#128 = AXIS2_PLACEMENT_3D ( 'NONE', #209, #166, #88 ) ;
#129 = CC_DESIGN_APPROVAL ( #304, ( #187 ) ) ;
#130 = DATE_TIME_ROLE ( 'creation_date' ) ;
#131 = ORIENTED_EDGE ( 'NONE', *, *, #62, .T. ) ;
#132 = ORIENTED_EDGE ( 'NONE', *, *, #157, .F. ) ;
#133 = CARTESIAN_POINT ( 'NONE',  ( 0.000000000000000000, 0.000000000000000000, 5.000000000000000000 ) ) ;
#134 = ORGANIZATION ( 'NEURÈENÝ', 'NEURÈENÝ', '' ) ;
#135 = DIRECTION ( 'NONE',  ( 1.000000000000000000, 0.000000000000000000, -0.000000000000000000 ) ) ;
#136 = CARTESIAN_POINT ( 'NONE',  ( 0.000000000000000000, 0.000000000000000000, 5.199999999999982414 ) ) ;
#137 = ORIENTED_EDGE ( 'NONE', *, *, #52, .F. ) ;
#138 = AXIS2_PLACEMENT_3D ( 'NONE', #144, #67, #238 ) ;
#139 = LOCAL_TIME ( 14, 32, 3.000000000000000000, #77 ) ;
#140 = FACE_OUTER_BOUND ( 'NONE', #195, .T. ) ;
#141 = ADVANCED_FACE ( 'NONE', ( #140 ), #306, .T. ) ;
#142 = DIRECTION ( 'NONE',  ( 0.000000000000000000, 0.000000000000000000, 1.000000000000000000 ) ) ;
#143 = CARTESIAN_POINT ( 'NONE',  ( 0.000000000000000000, 0.000000000000000000, 5.199999999999982414 ) ) ;
#144 = CARTESIAN_POINT ( 'NONE',  ( 0.000000000000000000, 0.000000000000000000, 505.0000000000000000 ) ) ;
#145 = CARTESIAN_POINT ( 'NONE',  ( 7.000000000000000000, 8.572527594031473190E-16, 5.000000000000000000 ) ) ;
#146 = CC_DESIGN_PERSON_AND_ORGANIZATION_ASSIGNMENT ( #196, #7, ( #115 ) ) ;
#147 = CC_DESIGN_SECURITY_CLASSIFICATION ( #101, ( #115 ) ) ;
#148 = ORIENTED_EDGE ( 'NONE', *, *, #216, .F. ) ;
#149 = DATE_AND_TIME ( #51, #186 ) ;
#150 = APPROVAL_DATE_TIME ( #30, #304 ) ;
#151 = ORIENTED_EDGE ( 'NONE', *, *, #167, .T. ) ;
#152 = ADVANCED_FACE ( 'NONE', ( #285 ), #47, .F. ) ;
#153 = MECHANICAL_CONTEXT ( 'NONE', #80, 'mechanical' ) ;
#154 = PRODUCT_DEFINITION_SHAPE ( 'NONE', 'NONE',  #187 ) ;
#155 = ORIENTED_EDGE ( 'NONE', *, *, #104, .F. ) ;
#156 = CARTESIAN_POINT ( 'NONE',  ( 4.099999999999999645, 5.021051876504147385E-16, 505.0000000000000000 ) ) ;
#157 = EDGE_CURVE ( 'NONE', #125, #53, #63, .T. ) ;
#158 = EDGE_LOOP ( 'NONE', ( #184, #229, #120, #105 ) ) ;
#159 = AXIS2_PLACEMENT_3D ( 'NONE', #64, #65, #118 ) ;
#160 = CARTESIAN_POINT ( 'NONE',  ( 4.099999999999999645, 5.021051876504147385E-16, 5.199999999999982414 ) ) ;
#161 = LINE ( 'NONE', #250, #221 ) ;
#162 = ORIENTED_EDGE ( 'NONE', *, *, #193, .T. ) ;
#163 = AXIS2_PLACEMENT_3D ( 'NONE', #283, #66, #168 ) ;
#164 = DIRECTION ( 'NONE',  ( 1.000000000000000000, 0.000000000000000000, 0.000000000000000000 ) ) ;
#165 = ADVANCED_BREP_SHAPE_REPRESENTATION ( '3876', ( #180, #114 ), #281 ) ;
#166 = DIRECTION ( 'NONE',  ( 0.000000000000000000, 0.000000000000000000, 1.000000000000000000 ) ) ;
#167 = EDGE_CURVE ( 'NONE', #278, #173, #45, .T. ) ;
#168 = DIRECTION ( 'NONE',  ( -1.000000000000000000, 0.000000000000000000, 0.000000000000000000 ) ) ;
#169 = FACE_OUTER_BOUND ( 'NONE', #265, .T. ) ;
#170 = APPROVAL_STATUS ( 'not_yet_approved' ) ;
#171 = AXIS2_PLACEMENT_3D ( 'NONE', #133, #36, #135 ) ;
#172 = APPROVAL_ROLE ( '' ) ;
#173 = VERTEX_POINT ( 'NONE', #145 ) ;
#174 = COORDINATED_UNIVERSAL_TIME_OFFSET ( 1, 0, .AHEAD. ) ;
#175 = SHAPE_DEFINITION_REPRESENTATION ( #154, #165 ) ;
#176 = SECURITY_CLASSIFICATION_LEVEL ( 'unclassified' ) ;
#177 = CIRCLE ( 'NONE', #138, 4.099999999999999645 ) ;
#178 = FACE_OUTER_BOUND ( 'NONE', #201, .T. ) ;
#179 = CARTESIAN_POINT ( 'NONE',  ( 0.000000000000000000, 0.000000000000000000, 505.0000000000000000 ) ) ;
#180 = MANIFOLD_SOLID_BREP ( 'Zaoblit1', #21 ) ;
#181 = FACE_OUTER_BOUND ( 'NONE', #214, .T. ) ;
#182 = DIRECTION ( 'NONE',  ( -0.000000000000000000, -0.000000000000000000, -1.000000000000000000 ) ) ;
#183 = ADVANCED_FACE ( 'NONE', ( #190 ), #258, .T. ) ;
#184 = ORIENTED_EDGE ( 'NONE', *, *, #300, .F. ) ;
#185 = DIRECTION ( 'NONE',  ( 0.000000000000000000, 0.000000000000000000, 1.000000000000000000 ) ) ;
#186 = LOCAL_TIME ( 14, 32, 3.000000000000000000, #174 ) ;
#187 = PRODUCT_DEFINITION ( 'NEZNÁMÝ', '', #115, #78 ) ;
#188 = CARTESIAN_POINT ( 'NONE',  ( -4.299999999999998934, 5.265981236333617484E-16, 5.199999999999982414 ) ) ;
#189 = DIRECTION ( 'NONE',  ( 1.224646799147353207E-16, 1.000000000000000000, -0.000000000000000000 ) ) ;
#190 = FACE_OUTER_BOUND ( 'NONE', #158, .T. ) ;
#191 = AXIS2_PLACEMENT_3D ( 'NONE', #240, #16, #164 ) ;
#192 = CARTESIAN_POINT ( 'NONE',  ( -4.099999999999999645, 0.000000000000000000, 5.199999999999982414 ) ) ;
#193 = EDGE_CURVE ( 'NONE', #53, #125, #213, .T. ) ;
#194 = PERSON_AND_ORGANIZATION ( #284, #134 ) ;
#195 = EDGE_LOOP ( 'NONE', ( #246, #70 ) ) ;
#196 = PERSON_AND_ORGANIZATION ( #284, #134 ) ;
#197 = AXIS2_PLACEMENT_3D ( 'NONE', #234, #259, #211 ) ;
#198 = CALENDAR_DATE ( 2022, 7, 7 ) ;
#199 = PERSON_AND_ORGANIZATION_ROLE ( 'design_supplier' ) ;
#200 = CC_DESIGN_DATE_AND_TIME_ASSIGNMENT ( #100, #130, ( #187 ) ) ;
#201 = EDGE_LOOP ( 'NONE', ( #137, #76, #9, #222 ) ) ;
#202 = EDGE_LOOP ( 'NONE', ( #61, #131, #253, #293 ) ) ;
#203 = CARTESIAN_POINT ( 'NONE',  ( 7.000000000000000000, 8.572527594031473190E-16, 0.000000000000000000 ) ) ;
#204 = DIRECTION ( 'NONE',  ( 1.000000000000000000, 0.000000000000000000, 0.000000000000000000 ) ) ;
#205 = CC_DESIGN_PERSON_AND_ORGANIZATION_ASSIGNMENT ( #49, #126, ( #46 ) ) ;
#206 = DIRECTION ( 'NONE',  ( -1.000000000000000000, 0.000000000000000000, 0.000000000000000000 ) ) ;
#207 = CARTESIAN_POINT ( 'NONE',  ( 0.000000000000000000, 0.000000000000000000, 505.0000000000000000 ) ) ;
#208 = CIRCLE ( 'NONE', #42, 4.099999999999999645 ) ;
#209 = CARTESIAN_POINT ( 'NONE',  ( 0.000000000000000000, 0.000000000000000000, 0.000000000000000000 ) ) ;
#210 = DIRECTION ( 'NONE',  ( 1.000000000000000000, 0.000000000000000000, 0.000000000000000000 ) ) ;
#211 = DIRECTION ( 'NONE',  ( 0.000000000000000000, 0.000000000000000000, -1.000000000000000000 ) ) ;
#212 = EDGE_CURVE ( 'NONE', #11, #26, #242, .T. ) ;
#213 = CIRCLE ( 'NONE', #159, 4.299999999999998934 ) ;
#214 = EDGE_LOOP ( 'NONE', ( #155, #79, #132, #148 ) ) ;
#215 = DATE_AND_TIME ( #123, #139 ) ;
#216 = EDGE_CURVE ( 'NONE', #107, #125, #256, .T. ) ;
#217 = ORIENTED_EDGE ( 'NONE', *, *, #216, .T. ) ;
#218 = PERSON_AND_ORGANIZATION ( #284, #134 ) ;
#219 = ORIENTED_EDGE ( 'NONE', *, *, #157, .T. ) ;
#220 = APPROVAL_STATUS ( 'not_yet_approved' ) ;
#221 = VECTOR ( 'NONE', #86, 1000.000000000000000 ) ;
#222 = ORIENTED_EDGE ( 'NONE', *, *, #104, .T. ) ;
#223 = AXIS2_PLACEMENT_3D ( 'NONE', #41, #40, #112 ) ;
#224 = FACE_BOUND ( 'NONE', #82, .T. ) ;
#225 = CC_DESIGN_APPROVAL ( #98, ( #101 ) ) ;
#226 = CARTESIAN_POINT ( 'NONE',  ( 0.000000000000000000, 0.000000000000000000, 5.199999999999982414 ) ) ;
#227 = AXIS2_PLACEMENT_3D ( 'NONE', #37, #85, #84 ) ;
#228 = CYLINDRICAL_SURFACE ( 'NONE', #252, 4.099999999999999645 ) ;
#229 = ORIENTED_EDGE ( 'NONE', *, *, #52, .T. ) ;
#230 = CIRCLE ( 'NONE', #95, 0.1999999999999996503 ) ;
#231 = CC_DESIGN_APPROVAL ( #32, ( #115 ) ) ;
#232 = DIRECTION ( 'NONE',  ( 1.000000000000000000, 0.000000000000000000, -0.000000000000000000 ) ) ;
#233 = CC_DESIGN_DATE_AND_TIME_ASSIGNMENT ( #149, #25, ( #101 ) ) ;
#234 = CARTESIAN_POINT ( 'NONE',  ( 4.299999999999998934, 0.000000000000000000, 5.199999999999982414 ) ) ;
#235 = CIRCLE ( 'NONE', #33, 4.099999999999999645 ) ;
#236 = AXIS2_PLACEMENT_3D ( 'NONE', #93, #185, #117 ) ;
#237 = CARTESIAN_POINT ( 'NONE',  ( 0.000000000000000000, 0.000000000000000000, 5.199999999999982414 ) ) ;
#238 = DIRECTION ( 'NONE',  ( 1.000000000000000000, 0.000000000000000000, 0.000000000000000000 ) ) ;
#239 = EDGE_CURVE ( 'NONE', #278, #11, #18, .T. ) ;
#240 = CARTESIAN_POINT ( 'NONE',  ( 0.000000000000000000, 0.000000000000000000, 5.000000000000000000 ) ) ;
#241 = PERSON_AND_ORGANIZATION ( #284, #134 ) ;
#242 = CIRCLE ( 'NONE', #128, 7.000000000000000000 ) ;
#243 = PERSON_AND_ORGANIZATION_ROLE ( 'creator' ) ;
#244 = ORIENTED_EDGE ( 'NONE', *, *, #167, .F. ) ;
#245 =( NAMED_UNIT ( * ) SI_UNIT ( $, .STERADIAN. ) SOLID_ANGLE_UNIT ( ) );
#246 = ORIENTED_EDGE ( 'NONE', *, *, #15, .T. ) ;
#247 = APPLICATION_PROTOCOL_DEFINITION ( 'international standard', 'config_control_design', 1994, #108 ) ;
#248 = EDGE_CURVE ( 'NONE', #5, #275, #303, .T. ) ;
#249 = DIRECTION ( 'NONE',  ( -1.000000000000000000, 0.000000000000000000, 0.000000000000000000 ) ) ;
#250 = CARTESIAN_POINT ( 'NONE',  ( 7.000000000000000000, 8.572527594031473190E-16, 5.000000000000000000 ) ) ;
#251 = PLANE ( 'NONE',  #171 ) ;
#252 = AXIS2_PLACEMENT_3D ( 'NONE', #14, #38, #206 ) ;
#253 = ORIENTED_EDGE ( 'NONE', *, *, #10, .T. ) ;
#254 = CC_DESIGN_PERSON_AND_ORGANIZATION_ASSIGNMENT ( #218, #243, ( #187 ) ) ;
#255 = CARTESIAN_POINT ( 'NONE',  ( -7.000000000000000000, 0.000000000000000000, 5.000000000000000000 ) ) ;
#256 = CIRCLE ( 'NONE', #197, 0.1999999999999996503 ) ;
#257 = APPROVAL_PERSON_ORGANIZATION ( #194, #32, #172 ) ;
#258 = CYLINDRICAL_SURFACE ( 'NONE', #223, 4.099999999999999645 ) ;
#259 = DIRECTION ( 'NONE',  ( 0.000000000000000000, -1.000000000000000000, 0.000000000000000000 ) ) ;
#260 = DIRECTION ( 'NONE',  ( 1.000000000000000000, 0.000000000000000000, 0.000000000000000000 ) ) ;
#261 = ADVANCED_FACE ( 'NONE', ( #169 ), #39, .F. ) ;
#262 = DIRECTION ( 'NONE',  ( -1.000000000000000000, 1.224646799147353454E-16, 0.000000000000000000 ) ) ;
#263 = APPROVAL_ROLE ( '' ) ;
#264 = EDGE_CURVE ( 'NONE', #275, #53, #230, .T. ) ;
#265 = EDGE_LOOP ( 'NONE', ( #12, #127, #217, #50 ) ) ;
#266 = AXIS2_PLACEMENT_3D ( 'NONE', #237, #90, #260 ) ;
#267 = COORDINATED_UNIVERSAL_TIME_OFFSET ( 1, 0, .AHEAD. ) ;
#268 = EDGE_LOOP ( 'NONE', ( #151, #97 ) ) ;
#269 = AXIS2_PLACEMENT_3D ( 'NONE', #179, #110, #204 ) ;
#270 = CARTESIAN_POINT ( 'NONE',  ( 0.000000000000000000, 0.000000000000000000, 0.000000000000000000 ) ) ;
#271 = UNCERTAINTY_MEASURE_WITH_UNIT (LENGTH_MEASURE( 1.000000000000000082E-05 ), #54, 'distance_accuracy_value', 'NONE');
#272 = AXIS2_PLACEMENT_3D ( 'NONE', #20, #44, #210 ) ;
#273 = CYLINDRICAL_SURFACE ( 'NONE', #301, 7.000000000000000000 ) ;
#274 = AXIS2_PLACEMENT_3D ( 'NONE', #136, #277, #299 ) ;
#275 = VERTEX_POINT ( 'NONE', #192 ) ;
#276 = CARTESIAN_POINT ( 'NONE',  ( -4.099999999999999645, 0.000000000000000000, 505.0000000000000000 ) ) ;
#277 = DIRECTION ( 'NONE',  ( 0.000000000000000000, 0.000000000000000000, 1.000000000000000000 ) ) ;
#278 = VERTEX_POINT ( 'NONE', #43 ) ;
#279 = EDGE_CURVE ( 'NONE', #173, #278, #35, .T. ) ;
#280 = DIRECTION ( 'NONE',  ( 1.000000000000000000, 0.000000000000000000, 0.000000000000000000 ) ) ;
#281 =( GEOMETRIC_REPRESENTATION_CONTEXT ( 3 ) GLOBAL_UNCERTAINTY_ASSIGNED_CONTEXT ( ( #271 ) ) GLOBAL_UNIT_ASSIGNED_CONTEXT ( ( #54, #28, #245 ) ) REPRESENTATION_CONTEXT ( 'NONE', 'WORKASPACE' ) );
#282 = DIRECTION ( 'NONE',  ( -0.000000000000000000, -0.000000000000000000, -1.000000000000000000 ) ) ;
#283 = CARTESIAN_POINT ( 'NONE',  ( 0.000000000000000000, 0.000000000000000000, 5.000000000000000000 ) ) ;
#284 = PERSON ( 'NEURÈENÝ', 'NEURÈENÝ', 'NEURÈENÝ', ('NEURÈENÝ'), ('NEURÈENÝ'), ('NEURÈENÝ') ) ;
#285 = FACE_OUTER_BOUND ( 'NONE', #2, .T. ) ;
#286 = ADVANCED_FACE ( 'NONE', ( #305 ), #91, .T. ) ;
#287 = ORIENTED_EDGE ( 'NONE', *, *, #212, .F. ) ;
#288 = DATE_AND_TIME ( #198, #294 ) ;
#289 = ORIENTED_EDGE ( 'NONE', *, *, #62, .F. ) ;
#290 = CALENDAR_DATE ( 2022, 7, 7 ) ;
#291 = PRODUCT_RELATED_PRODUCT_CATEGORY ( 'detail', '', ( #46 ) ) ;
#292 = APPROVAL_ROLE ( '' ) ;
#293 = ORIENTED_EDGE ( 'NONE', *, *, #239, .F. ) ;
#294 = LOCAL_TIME ( 14, 32, 3.000000000000000000, #4 ) ;
#295 = FACE_OUTER_BOUND ( 'NONE', #202, .T. ) ;
#296 = ORIENTED_EDGE ( 'NONE', *, *, #212, .T. ) ;
#297 = DIRECTION ( 'NONE',  ( 1.000000000000000000, 0.000000000000000000, 0.000000000000000000 ) ) ;
#298 = VECTOR ( 'NONE', #113, 1000.000000000000000 ) ;
#299 = DIRECTION ( 'NONE',  ( 1.000000000000000000, 0.000000000000000000, 0.000000000000000000 ) ) ;
#300 = EDGE_CURVE ( 'NONE', #29, #5, #177, .T. ) ;
#301 = AXIS2_PLACEMENT_3D ( 'NONE', #111, #182, #249 ) ;
#302 = DIRECTION ( 'NONE',  ( 0.000000000000000000, 0.000000000000000000, 1.000000000000000000 ) ) ;
#303 = LINE ( 'NONE', #307, #55 ) ;
#304 = APPROVAL ( #1, 'NEURÈENÝ' ) ;
#305 = FACE_OUTER_BOUND ( 'NONE', #109, .T. ) ;
#306 = PLANE ( 'NONE',  #89 ) ;
#307 = CARTESIAN_POINT ( 'NONE',  ( -4.099999999999999645, 0.000000000000000000, 505.0000000000000000 ) ) ;
ENDSEC;
END-ISO-10303-21;
