ISO-10303-21;
HEADER;
FILE_DESCRIPTION (( 'STEP AP203' ),
    '1' );
FILE_NAME ('f682.STEP',
    '2023-04-13T13:26:13',
    ( '' ),
    ( '' ),
    'SwSTEP 2.0',
    'SolidWorks 2019',
    '' );
FILE_SCHEMA (( 'CONFIG_CONTROL_DESIGN' ));
ENDSEC;

DATA;
#1 = ORIENTED_EDGE ( 'NONE', *, *, #221, .F. ) ;
#2 = CC_DESIGN_PERSON_AND_ORGANIZATION_ASSIGNMENT ( #249, #14, ( #113 ) ) ;
#3 = ORIENTED_EDGE ( 'NONE', *, *, #101, .F. ) ;
#4 = DIRECTION ( 'NONE',  ( 1.000000000000000000, 0.000000000000000000, -0.000000000000000000 ) ) ;
#5 = PRODUCT ( 'f682', 'f682', '', ( #50 ) ) ;
#6 = DIRECTION ( 'NONE',  ( 1.000000000000000000, 0.000000000000000000, 0.000000000000000000 ) ) ;
#7 = FACE_OUTER_BOUND ( 'NONE', #192, .T. ) ;
#8 = CARTESIAN_POINT ( 'NONE',  ( 0.000000000000000000, 0.000000000000000000, 0.000000000000000000 ) ) ;
#9 = CIRCLE ( 'NONE', #147, 2.000000000000000000 ) ;
#10 = EDGE_CURVE ( 'NONE', #172, #134, #193, .T. ) ;
#11 = COORDINATED_UNIVERSAL_TIME_OFFSET ( 1, 0, .AHEAD. ) ;
#12 = APPROVAL_DATE_TIME ( #232, #53 ) ;
#13 = APPROVAL_DATE_TIME ( #187, #72 ) ;
#14 = PERSON_AND_ORGANIZATION_ROLE ( 'creator' ) ;
#15 = ORIENTED_EDGE ( 'NONE', *, *, #194, .F. ) ;
#16 = PRODUCT_DEFINITION ( 'NEZNÁMÝ', '', #113, #228 ) ;
#17 = ORIENTED_EDGE ( 'NONE', *, *, #250, .F. ) ;
#18 = ORIENTED_EDGE ( 'NONE', *, *, #194, .T. ) ;
#19 = ORIENTED_EDGE ( 'NONE', *, *, #237, .F. ) ;
#20 = DIRECTION ( 'NONE',  ( -1.000000000000000000, 0.000000000000000000, 0.000000000000000000 ) ) ;
#21 = DIRECTION ( 'NONE',  ( -0.000000000000000000, -0.000000000000000000, -1.000000000000000000 ) ) ;
#22 = CC_DESIGN_SECURITY_CLASSIFICATION ( #171, ( #113 ) ) ;
#23 = PLANE ( 'NONE',  #150 ) ;
#24 = FACE_OUTER_BOUND ( 'NONE', #156, .T. ) ;
#25 = DIRECTION ( 'NONE',  ( 0.000000000000000000, 0.000000000000000000, 1.000000000000000000 ) ) ;
#26 = DIRECTION ( 'NONE',  ( 0.000000000000000000, 0.000000000000000000, 1.000000000000000000 ) ) ;
#27 = CC_DESIGN_PERSON_AND_ORGANIZATION_ASSIGNMENT ( #207, #28, ( #5 ) ) ;
#28 = PERSON_AND_ORGANIZATION_ROLE ( 'design_owner' ) ;
#29 = APPROVAL_ROLE ( '' ) ;
#30 = COORDINATED_UNIVERSAL_TIME_OFFSET ( 1, 0, .AHEAD. ) ;
#31 = PERSON_AND_ORGANIZATION ( #96, #33 ) ;
#32 = DIRECTION ( 'NONE',  ( 1.000000000000000000, 0.000000000000000000, -0.000000000000000000 ) ) ;
#33 = ORGANIZATION ( 'NEURÈENÝ', 'NEURÈENÝ', '' ) ;
#34 = PERSON_AND_ORGANIZATION_ROLE ( 'design_supplier' ) ;
#35 = ORIENTED_EDGE ( 'NONE', *, *, #169, .T. ) ;
#36 =( LENGTH_UNIT ( ) NAMED_UNIT ( * ) SI_UNIT ( .MILLI., .METRE. ) );
#37 = CARTESIAN_POINT ( 'NONE',  ( 0.000000000000000000, 0.000000000000000000, 126.0000000000000000 ) ) ;
#38 = VECTOR ( 'NONE', #163, 1000.000000000000000 ) ;
#39 = ORIENTED_EDGE ( 'NONE', *, *, #221, .T. ) ;
#40 = EDGE_CURVE ( 'NONE', #197, #151, #123, .T. ) ;
#41 = CARTESIAN_POINT ( 'NONE',  ( 0.000000000000000000, 0.000000000000000000, 126.0000000000000000 ) ) ;
#42 = DIRECTION ( 'NONE',  ( -0.000000000000000000, -0.000000000000000000, -1.000000000000000000 ) ) ;
#43 = DIRECTION ( 'NONE',  ( 0.000000000000000000, 0.000000000000000000, 1.000000000000000000 ) ) ;
#44 = CARTESIAN_POINT ( 'NONE',  ( 2.000000000000000000, 2.449293598294706414E-16, 2.000000000000000000 ) ) ;
#45 = DIRECTION ( 'NONE',  ( 1.000000000000000000, 0.000000000000000000, 0.000000000000000000 ) ) ;
#46 = ADVANCED_FACE ( 'NONE', ( #204 ), #125, .F. ) ;
#47 = CARTESIAN_POINT ( 'NONE',  ( 0.000000000000000000, 0.000000000000000000, 126.0000000000000000 ) ) ;
#48 = LINE ( 'NONE', #52, #97 ) ;
#49 = DIRECTION ( 'NONE',  ( 1.000000000000000000, 0.000000000000000000, 0.000000000000000000 ) ) ;
#50 = MECHANICAL_CONTEXT ( 'NONE', #133, 'mechanical' ) ;
#51 = CLOSED_SHELL ( 'NONE', ( #216, #59, #213, #208, #46, #181, #168 ) ) ;
#52 = CARTESIAN_POINT ( 'NONE',  ( -2.000000000000000000, 0.000000000000000000, 2.000000000000000000 ) ) ;
#53 = APPROVAL ( #80, 'NEURÈENÝ' ) ;
#54 = CALENDAR_DATE ( 2023, 13, 4 ) ;
#55 = PERSON_AND_ORGANIZATION_ROLE ( 'creator' ) ;
#56 = APPROVAL_STATUS ( 'not_yet_approved' ) ;
#57 = DIRECTION ( 'NONE',  ( -1.000000000000000000, 0.000000000000000000, 0.000000000000000000 ) ) ;
#58 = VECTOR ( 'NONE', #21, 1000.000000000000000 ) ;
#59 = ADVANCED_FACE ( 'NONE', ( #68 ), #141, .T. ) ;
#60 = ORIENTED_EDGE ( 'NONE', *, *, #10, .F. ) ;
#61 = VERTEX_POINT ( 'NONE', #173 ) ;
#62 = EDGE_LOOP ( 'NONE', ( #83, #82, #196, #17 ) ) ;
#63 = AXIS2_PLACEMENT_3D ( 'NONE', #137, #245, #45 ) ;
#64 = APPROVAL ( #56, 'NEURÈENÝ' ) ;
#65 = AXIS2_PLACEMENT_3D ( 'NONE', #37, #149, #20 ) ;
#66 = ORIENTED_EDGE ( 'NONE', *, *, #40, .F. ) ;
#67 = DIRECTION ( 'NONE',  ( 0.000000000000000000, 0.000000000000000000, 1.000000000000000000 ) ) ;
#68 = FACE_OUTER_BOUND ( 'NONE', #62, .T. ) ;
#69 = APPROVAL_PERSON_ORGANIZATION ( #126, #53, #205 ) ;
#70 = DIRECTION ( 'NONE',  ( 1.000000000000000000, 0.000000000000000000, 0.000000000000000000 ) ) ;
#71 = CARTESIAN_POINT ( 'NONE',  ( 1.000000000000000000, 1.224646799147353207E-16, 2.000000000000000000 ) ) ;
#72 = APPROVAL ( #185, 'NEURÈENÝ' ) ;
#73 = LINE ( 'NONE', #104, #233 ) ;
#74 = LOCAL_TIME ( 15, 26, 13.00000000000000000, #30 ) ;
#75 = PERSON_AND_ORGANIZATION ( #96, #33 ) ;
#76 = CARTESIAN_POINT ( 'NONE',  ( -1.000000000000000000, 0.000000000000000000, 126.0000000000000000 ) ) ;
#77 =( NAMED_UNIT ( * ) SI_UNIT ( $, .STERADIAN. ) SOLID_ANGLE_UNIT ( ) );
#78 = AXIS2_PLACEMENT_3D ( 'NONE', #154, #100, #87 ) ;
#79 = APPLICATION_PROTOCOL_DEFINITION ( 'international standard', 'config_control_design', 1994, #133 ) ;
#80 = APPROVAL_STATUS ( 'not_yet_approved' ) ;
#81 = DIRECTION ( 'NONE',  ( -0.000000000000000000, -0.000000000000000000, -1.000000000000000000 ) ) ;
#82 = ORIENTED_EDGE ( 'NONE', *, *, #40, .T. ) ;
#83 = ORIENTED_EDGE ( 'NONE', *, *, #142, .F. ) ;
#84 = CIRCLE ( 'NONE', #218, 1.000000000000000000 ) ;
#85 = DIRECTION ( 'NONE',  ( 1.000000000000000000, 0.000000000000000000, 0.000000000000000000 ) ) ;
#86 = DIRECTION ( 'NONE',  ( -1.000000000000000000, 0.000000000000000000, 0.000000000000000000 ) ) ;
#87 = DIRECTION ( 'NONE',  ( -1.000000000000000000, 0.000000000000000000, 0.000000000000000000 ) ) ;
#88 = CARTESIAN_POINT ( 'NONE',  ( 0.000000000000000000, 0.000000000000000000, 2.000000000000000000 ) ) ;
#89 = EDGE_CURVE ( 'NONE', #134, #172, #165, .T. ) ;
#90 = CARTESIAN_POINT ( 'NONE',  ( 2.000000000000000000, 2.449293598294706414E-16, 0.000000000000000000 ) ) ;
#91 = AXIS2_PLACEMENT_3D ( 'NONE', #158, #42, #86 ) ;
#92 = CALENDAR_DATE ( 2023, 13, 4 ) ;
#93 = SECURITY_CLASSIFICATION_LEVEL ( 'unclassified' ) ;
#94 = CIRCLE ( 'NONE', #121, 2.000000000000000000 ) ;
#95 = COORDINATED_UNIVERSAL_TIME_OFFSET ( 1, 0, .AHEAD. ) ;
#96 = PERSON ( 'NEURÈENÝ', 'NEURÈENÝ', 'NEURÈENÝ', ('NEURÈENÝ'), ('NEURÈENÝ'), ('NEURÈENÝ') ) ;
#97 = VECTOR ( 'NONE', #184, 1000.000000000000000 ) ;
#98 = VERTEX_POINT ( 'NONE', #105 ) ;
#99 = AXIS2_PLACEMENT_3D ( 'NONE', #41, #182, #107 ) ;
#100 = DIRECTION ( 'NONE',  ( -0.000000000000000000, -0.000000000000000000, -1.000000000000000000 ) ) ;
#101 = EDGE_CURVE ( 'NONE', #61, #172, #73, .T. ) ;
#102 = CARTESIAN_POINT ( 'NONE',  ( 0.000000000000000000, 0.000000000000000000, 2.000000000000000000 ) ) ;
#103 = CYLINDRICAL_SURFACE ( 'NONE', #78, 1.000000000000000000 ) ;
#104 = CARTESIAN_POINT ( 'NONE',  ( 1.000000000000000000, 1.224646799147353207E-16, 126.0000000000000000 ) ) ;
#105 = CARTESIAN_POINT ( 'NONE',  ( -2.000000000000000000, 0.000000000000000000, 0.000000000000000000 ) ) ;
#106 = CARTESIAN_POINT ( 'NONE',  ( -1.000000000000000000, 0.000000000000000000, 126.0000000000000000 ) ) ;
#107 = DIRECTION ( 'NONE',  ( 1.000000000000000000, 0.000000000000000000, 0.000000000000000000 ) ) ;
#108 = APPROVAL_ROLE ( '' ) ;
#109 = CALENDAR_DATE ( 2023, 13, 4 ) ;
#110 = CALENDAR_DATE ( 2023, 13, 4 ) ;
#111 = FACE_OUTER_BOUND ( 'NONE', #135, .T. ) ;
#112 = CC_DESIGN_DATE_AND_TIME_ASSIGNMENT ( #146, #115, ( #171 ) ) ;
#113 = PRODUCT_DEFINITION_FORMATION_WITH_SPECIFIED_SOURCE ( 'LIBOVOLNÝ', '', #5, .NOT_KNOWN. ) ;
#114 = CARTESIAN_POINT ( 'NONE',  ( -2.000000000000000000, 0.000000000000000000, 2.000000000000000000 ) ) ;
#115 = DATE_TIME_ROLE ( 'classification_date' ) ;
#116 = EDGE_LOOP ( 'NONE', ( #239, #215 ) ) ;
#117 = EDGE_LOOP ( 'NONE', ( #234, #60 ) ) ;
#118 = EDGE_LOOP ( 'NONE', ( #15, #235 ) ) ;
#119 = ORIENTED_EDGE ( 'NONE', *, *, #169, .F. ) ;
#120 = CC_DESIGN_PERSON_AND_ORGANIZATION_ASSIGNMENT ( #31, #209, ( #171 ) ) ;
#121 = AXIS2_PLACEMENT_3D ( 'NONE', #88, #242, #122 ) ;
#122 = DIRECTION ( 'NONE',  ( 1.000000000000000000, 0.000000000000000000, 0.000000000000000000 ) ) ;
#123 = LINE ( 'NONE', #220, #58 ) ;
#124 = ORIENTED_EDGE ( 'NONE', *, *, #101, .T. ) ;
#125 = PLANE ( 'NONE',  #128 ) ;
#126 = PERSON_AND_ORGANIZATION ( #96, #33 ) ;
#127 = CC_DESIGN_DATE_AND_TIME_ASSIGNMENT ( #251, #131, ( #16 ) ) ;
#128 = AXIS2_PLACEMENT_3D ( 'NONE', #8, #67, #160 ) ;
#129 = PERSON_AND_ORGANIZATION ( #96, #33 ) ;
#130 =( NAMED_UNIT ( * ) PLANE_ANGLE_UNIT ( ) SI_UNIT ( $, .RADIAN. ) );
#131 = DATE_TIME_ROLE ( 'creation_date' ) ;
#132 = CIRCLE ( 'NONE', #222, 2.000000000000000000 ) ;
#133 = APPLICATION_CONTEXT ( 'configuration controlled 3d designs of mechanical parts and assemblies' ) ;
#134 = VERTEX_POINT ( 'NONE', #246 ) ;
#135 = EDGE_LOOP ( 'NONE', ( #66, #119, #217, #18 ) ) ;
#136 = AXIS2_PLACEMENT_3D ( 'NONE', #102, #25, #176 ) ;
#137 = CARTESIAN_POINT ( 'NONE',  ( 0.000000000000000000, 0.000000000000000000, 2.000000000000000000 ) ) ;
#138 = DIRECTION ( 'NONE',  ( 0.000000000000000000, 0.000000000000000000, 1.000000000000000000 ) ) ;
#139 = DIRECTION ( 'NONE',  ( 0.000000000000000000, 0.000000000000000000, 1.000000000000000000 ) ) ;
#140 = CARTESIAN_POINT ( 'NONE',  ( 0.000000000000000000, 0.000000000000000000, 2.000000000000000000 ) ) ;
#141 = CYLINDRICAL_SURFACE ( 'NONE', #91, 2.000000000000000000 ) ;
#142 = EDGE_CURVE ( 'NONE', #197, #224, #94, .T. ) ;
#143 = CARTESIAN_POINT ( 'NONE',  ( 0.000000000000000000, 0.000000000000000000, 0.000000000000000000 ) ) ;
#144 = APPLICATION_CONTEXT ( 'configuration controlled 3d designs of mechanical parts and assemblies' ) ;
#145 = APPLICATION_PROTOCOL_DEFINITION ( 'international standard', 'config_control_design', 1994, #144 ) ;
#146 = DATE_AND_TIME ( #110, #74 ) ;
#147 = AXIS2_PLACEMENT_3D ( 'NONE', #200, #138, #223 ) ;
#148 = EDGE_LOOP ( 'NONE', ( #19, #124, #253, #1 ) ) ;
#149 = DIRECTION ( 'NONE',  ( -0.000000000000000000, -0.000000000000000000, -1.000000000000000000 ) ) ;
#150 = AXIS2_PLACEMENT_3D ( 'NONE', #227, #43, #4 ) ;
#151 = VERTEX_POINT ( 'NONE', #90 ) ;
#152 = AXIS2_PLACEMENT_3D ( 'NONE', #143, #248, #49 ) ;
#153 = EDGE_CURVE ( 'NONE', #151, #98, #170, .T. ) ;
#154 = CARTESIAN_POINT ( 'NONE',  ( 0.000000000000000000, 0.000000000000000000, 126.0000000000000000 ) ) ;
#155 = UNCERTAINTY_MEASURE_WITH_UNIT (LENGTH_MEASURE( 1.000000000000000082E-05 ), #36, 'distance_accuracy_value', 'NONE');
#156 = EDGE_LOOP ( 'NONE', ( #3, #236, #39, #255 ) ) ;
#157 = APPROVAL_PERSON_ORGANIZATION ( #75, #64, #29 ) ;
#158 = CARTESIAN_POINT ( 'NONE',  ( 0.000000000000000000, 0.000000000000000000, 2.000000000000000000 ) ) ;
#159 = PLANE ( 'NONE',  #166 ) ;
#160 = DIRECTION ( 'NONE',  ( 1.000000000000000000, 0.000000000000000000, -0.000000000000000000 ) ) ;
#161 = CC_DESIGN_PERSON_AND_ORGANIZATION_ASSIGNMENT ( #129, #34, ( #113 ) ) ;
#162 = CC_DESIGN_APPROVAL ( #72, ( #171 ) ) ;
#163 = DIRECTION ( 'NONE',  ( -0.000000000000000000, -0.000000000000000000, -1.000000000000000000 ) ) ;
#164 = CC_DESIGN_PERSON_AND_ORGANIZATION_ASSIGNMENT ( #167, #55, ( #16 ) ) ;
#165 = CIRCLE ( 'NONE', #63, 1.000000000000000000 ) ;
#166 = AXIS2_PLACEMENT_3D ( 'NONE', #140, #26, #32 ) ;
#167 = PERSON_AND_ORGANIZATION ( #96, #33 ) ;
#168 = ADVANCED_FACE ( 'NONE', ( #201 ), #23, .T. ) ;
#169 = EDGE_CURVE ( 'NONE', #224, #197, #9, .T. ) ;
#170 = CIRCLE ( 'NONE', #238, 2.000000000000000000 ) ;
#171 = SECURITY_CLASSIFICATION ( '', '', #93 ) ;
#172 = VERTEX_POINT ( 'NONE', #71 ) ;
#173 = CARTESIAN_POINT ( 'NONE',  ( 1.000000000000000000, 1.224646799147353207E-16, 126.0000000000000000 ) ) ;
#174 = ADVANCED_BREP_SHAPE_REPRESENTATION ( 'f682', ( #199, #152 ), #247 ) ;
#175 = EDGE_CURVE ( 'NONE', #219, #61, #84, .T. ) ;
#176 = DIRECTION ( 'NONE',  ( 1.000000000000000000, 0.000000000000000000, 0.000000000000000000 ) ) ;
#177 = LOCAL_TIME ( 15, 26, 13.00000000000000000, #210 ) ;
#178 = FACE_BOUND ( 'NONE', #117, .T. ) ;
#179 = LINE ( 'NONE', #106, #38 ) ;
#180 = CARTESIAN_POINT ( 'NONE',  ( 0.000000000000000000, 0.000000000000000000, 0.000000000000000000 ) ) ;
#181 = ADVANCED_FACE ( 'NONE', ( #24 ), #103, .T. ) ;
#182 = DIRECTION ( 'NONE',  ( 0.000000000000000000, 0.000000000000000000, 1.000000000000000000 ) ) ;
#183 = FACE_OUTER_BOUND ( 'NONE', #148, .T. ) ;
#184 = DIRECTION ( 'NONE',  ( -0.000000000000000000, -0.000000000000000000, -1.000000000000000000 ) ) ;
#185 = APPROVAL_STATUS ( 'not_yet_approved' ) ;
#186 = CALENDAR_DATE ( 2023, 13, 4 ) ;
#187 = DATE_AND_TIME ( #92, #212 ) ;
#188 = SHAPE_DEFINITION_REPRESENTATION ( #241, #174 ) ;
#189 = CYLINDRICAL_SURFACE ( 'NONE', #226, 2.000000000000000000 ) ;
#190 = LOCAL_TIME ( 15, 26, 13.00000000000000000, #229 ) ;
#191 = PERSON_AND_ORGANIZATION ( #96, #33 ) ;
#192 = EDGE_LOOP ( 'NONE', ( #35, #195 ) ) ;
#193 = CIRCLE ( 'NONE', #136, 1.000000000000000000 ) ;
#194 = EDGE_CURVE ( 'NONE', #98, #151, #132, .T. ) ;
#195 = ORIENTED_EDGE ( 'NONE', *, *, #142, .T. ) ;
#196 = ORIENTED_EDGE ( 'NONE', *, *, #153, .T. ) ;
#197 = VERTEX_POINT ( 'NONE', #44 ) ;
#198 = DIRECTION ( 'NONE',  ( -0.000000000000000000, -0.000000000000000000, -1.000000000000000000 ) ) ;
#199 = MANIFOLD_SOLID_BREP ( 'Pøidat vysunutím3', #51 ) ;
#200 = CARTESIAN_POINT ( 'NONE',  ( 0.000000000000000000, 0.000000000000000000, 2.000000000000000000 ) ) ;
#201 = FACE_OUTER_BOUND ( 'NONE', #116, .T. ) ;
#202 = CC_DESIGN_APPROVAL ( #64, ( #16 ) ) ;
#203 = PRODUCT_RELATED_PRODUCT_CATEGORY ( 'detail', '', ( #5 ) ) ;
#204 = FACE_OUTER_BOUND ( 'NONE', #118, .T. ) ;
#205 = APPROVAL_ROLE ( '' ) ;
#206 = CC_DESIGN_APPROVAL ( #53, ( #113 ) ) ;
#207 = PERSON_AND_ORGANIZATION ( #96, #33 ) ;
#208 = ADVANCED_FACE ( 'NONE', ( #178, #7 ), #159, .T. ) ;
#209 = PERSON_AND_ORGANIZATION_ROLE ( 'classification_officer' ) ;
#210 = COORDINATED_UNIVERSAL_TIME_OFFSET ( 1, 0, .AHEAD. ) ;
#211 = DATE_AND_TIME ( #109, #230 ) ;
#212 = LOCAL_TIME ( 15, 26, 13.00000000000000000, #11 ) ;
#213 = ADVANCED_FACE ( 'NONE', ( #111 ), #189, .T. ) ;
#214 = CYLINDRICAL_SURFACE ( 'NONE', #65, 1.000000000000000000 ) ;
#215 = ORIENTED_EDGE ( 'NONE', *, *, #237, .T. ) ;
#216 = ADVANCED_FACE ( 'NONE', ( #183 ), #214, .T. ) ;
#217 = ORIENTED_EDGE ( 'NONE', *, *, #250, .T. ) ;
#218 = AXIS2_PLACEMENT_3D ( 'NONE', #47, #240, #85 ) ;
#219 = VERTEX_POINT ( 'NONE', #76 ) ;
#220 = CARTESIAN_POINT ( 'NONE',  ( 2.000000000000000000, 2.449293598294706414E-16, 2.000000000000000000 ) ) ;
#221 = EDGE_CURVE ( 'NONE', #219, #134, #179, .T. ) ;
#222 = AXIS2_PLACEMENT_3D ( 'NONE', #225, #244, #70 ) ;
#223 = DIRECTION ( 'NONE',  ( 1.000000000000000000, 0.000000000000000000, 0.000000000000000000 ) ) ;
#224 = VERTEX_POINT ( 'NONE', #114 ) ;
#225 = CARTESIAN_POINT ( 'NONE',  ( 0.000000000000000000, 0.000000000000000000, 0.000000000000000000 ) ) ;
#226 = AXIS2_PLACEMENT_3D ( 'NONE', #252, #81, #57 ) ;
#227 = CARTESIAN_POINT ( 'NONE',  ( 0.000000000000000000, 0.000000000000000000, 126.0000000000000000 ) ) ;
#228 = DESIGN_CONTEXT ( 'detailed design', #144, 'design' ) ;
#229 = COORDINATED_UNIVERSAL_TIME_OFFSET ( 1, 0, .AHEAD. ) ;
#230 = LOCAL_TIME ( 15, 26, 13.00000000000000000, #95 ) ;
#231 = APPROVAL_DATE_TIME ( #211, #64 ) ;
#232 = DATE_AND_TIME ( #54, #177 ) ;
#233 = VECTOR ( 'NONE', #198, 1000.000000000000000 ) ;
#234 = ORIENTED_EDGE ( 'NONE', *, *, #89, .F. ) ;
#235 = ORIENTED_EDGE ( 'NONE', *, *, #153, .F. ) ;
#236 = ORIENTED_EDGE ( 'NONE', *, *, #175, .F. ) ;
#237 = EDGE_CURVE ( 'NONE', #61, #219, #254, .T. ) ;
#238 = AXIS2_PLACEMENT_3D ( 'NONE', #180, #139, #6 ) ;
#239 = ORIENTED_EDGE ( 'NONE', *, *, #175, .T. ) ;
#240 = DIRECTION ( 'NONE',  ( 0.000000000000000000, 0.000000000000000000, 1.000000000000000000 ) ) ;
#241 = PRODUCT_DEFINITION_SHAPE ( 'NONE', 'NONE',  #16 ) ;
#242 = DIRECTION ( 'NONE',  ( 0.000000000000000000, 0.000000000000000000, 1.000000000000000000 ) ) ;
#243 = APPROVAL_PERSON_ORGANIZATION ( #191, #72, #108 ) ;
#244 = DIRECTION ( 'NONE',  ( 0.000000000000000000, 0.000000000000000000, 1.000000000000000000 ) ) ;
#245 = DIRECTION ( 'NONE',  ( 0.000000000000000000, 0.000000000000000000, 1.000000000000000000 ) ) ;
#246 = CARTESIAN_POINT ( 'NONE',  ( -1.000000000000000000, 0.000000000000000000, 2.000000000000000000 ) ) ;
#247 =( GEOMETRIC_REPRESENTATION_CONTEXT ( 3 ) GLOBAL_UNCERTAINTY_ASSIGNED_CONTEXT ( ( #155 ) ) GLOBAL_UNIT_ASSIGNED_CONTEXT ( ( #36, #130, #77 ) ) REPRESENTATION_CONTEXT ( 'NONE', 'WORKASPACE' ) );
#248 = DIRECTION ( 'NONE',  ( 0.000000000000000000, 0.000000000000000000, 1.000000000000000000 ) ) ;
#249 = PERSON_AND_ORGANIZATION ( #96, #33 ) ;
#250 = EDGE_CURVE ( 'NONE', #224, #98, #48, .T. ) ;
#251 = DATE_AND_TIME ( #186, #190 ) ;
#252 = CARTESIAN_POINT ( 'NONE',  ( 0.000000000000000000, 0.000000000000000000, 2.000000000000000000 ) ) ;
#253 = ORIENTED_EDGE ( 'NONE', *, *, #10, .T. ) ;
#254 = CIRCLE ( 'NONE', #99, 1.000000000000000000 ) ;
#255 = ORIENTED_EDGE ( 'NONE', *, *, #89, .T. ) ;
ENDSEC;
END-ISO-10303-21;
