ISO-10303-21;
HEADER;
FILE_DESCRIPTION (( 'STEP AP203' ),
    '1' );
FILE_NAME ('748e.STEP',
    '2022-07-07T12:31:04',
    ( '' ),
    ( '' ),
    'SwSTEP 2.0',
    'SolidWorks 2019',
    '' );
FILE_SCHEMA (( 'CONFIG_CONTROL_DESIGN' ));
ENDSEC;

DATA;
#1 = DIRECTION ( 'NONE',  ( 0.000000000000000000, 0.000000000000000000, 1.000000000000000000 ) ) ;
#2 = CIRCLE ( 'NONE', #292, 4.250000000000000000 ) ;
#3 = CC_DESIGN_PERSON_AND_ORGANIZATION_ASSIGNMENT ( #43, #136, ( #259 ) ) ;
#4 = DIRECTION ( 'NONE',  ( -0.000000000000000000, -0.000000000000000000, -1.000000000000000000 ) ) ;
#5 = AXIS2_PLACEMENT_3D ( 'NONE', #114, #248, #111 ) ;
#6 = CARTESIAN_POINT ( 'NONE',  ( 0.000000000000000000, 0.000000000000000000, 5.000000000000000000 ) ) ;
#7 = CC_DESIGN_PERSON_AND_ORGANIZATION_ASSIGNMENT ( #65, #41, ( #307 ) ) ;
#8 = CARTESIAN_POINT ( 'NONE',  ( -7.000000000000000000, 0.000000000000000000, 5.000000000000000000 ) ) ;
#9 = ORIENTED_EDGE ( 'NONE', *, *, #101, .F. ) ;
#10 = EDGE_CURVE ( 'NONE', #108, #125, #190, .T. ) ;
#11 = ORIENTED_EDGE ( 'NONE', *, *, #31, .T. ) ;
#12 = ADVANCED_FACE ( 'NONE', ( #233 ), #227, .T. ) ;
#13 = DATE_AND_TIME ( #305, #230 ) ;
#14 = EDGE_LOOP ( 'NONE', ( #87, #154, #175, #64 ) ) ;
#15 = MECHANICAL_CONTEXT ( 'NONE', #202, 'mechanical' ) ;
#16 = DIRECTION ( 'NONE',  ( 1.000000000000000000, 0.000000000000000000, 0.000000000000000000 ) ) ;
#17 = PLANE ( 'NONE',  #5 ) ;
#18 = ADVANCED_BREP_SHAPE_REPRESENTATION ( '748e', ( #287, #106 ), #282 ) ;
#19 = PERSON_AND_ORGANIZATION ( #103, #236 ) ;
#20 = DIRECTION ( 'NONE',  ( 1.224646799147353207E-16, 1.000000000000000000, -0.000000000000000000 ) ) ;
#21 = PERSON_AND_ORGANIZATION_ROLE ( 'design_supplier' ) ;
#22 = CIRCLE ( 'NONE', #293, 4.250000000000000000 ) ;
#23 = EDGE_LOOP ( 'NONE', ( #199, #291, #180, #34 ) ) ;
#24 = APPROVAL_ROLE ( '' ) ;
#25 = EDGE_LOOP ( 'NONE', ( #128, #223, #294, #174 ) ) ;
#26 = AXIS2_PLACEMENT_3D ( 'NONE', #164, #20, #89 ) ;
#27 = EDGE_CURVE ( 'NONE', #125, #108, #129, .T. ) ;
#28 = DIRECTION ( 'NONE',  ( -1.000000000000000000, 0.000000000000000000, 0.000000000000000000 ) ) ;
#29 = FACE_OUTER_BOUND ( 'NONE', #25, .T. ) ;
#30 = LINE ( 'NONE', #256, #52 ) ;
#31 = EDGE_CURVE ( 'NONE', #57, #36, #143, .T. ) ;
#32 = DIRECTION ( 'NONE',  ( 1.000000000000000000, 0.000000000000000000, 0.000000000000000000 ) ) ;
#33 = ORIENTED_EDGE ( 'NONE', *, *, #61, .T. ) ;
#34 = ORIENTED_EDGE ( 'NONE', *, *, #153, .F. ) ;
#35 = AXIS2_PLACEMENT_3D ( 'NONE', #171, #56, #149 ) ;
#36 = VERTEX_POINT ( 'NONE', #299 ) ;
#37 = PRODUCT_RELATED_PRODUCT_CATEGORY ( 'detail', '', ( #307 ) ) ;
#38 = AXIS2_PLACEMENT_3D ( 'NONE', #117, #42, #16 ) ;
#39 = DIRECTION ( 'NONE',  ( 1.000000000000000000, 0.000000000000000000, 0.000000000000000000 ) ) ;
#40 = VECTOR ( 'NONE', #188, 1000.000000000000000 ) ;
#41 = PERSON_AND_ORGANIZATION_ROLE ( 'design_owner' ) ;
#42 = DIRECTION ( 'NONE',  ( -0.000000000000000000, -0.000000000000000000, -1.000000000000000000 ) ) ;
#43 = PERSON_AND_ORGANIZATION ( #103, #236 ) ;
#44 = APPROVAL ( #232, 'NEURÈENÝ' ) ;
#45 = AXIS2_PLACEMENT_3D ( 'NONE', #72, #94, #273 ) ;
#46 = ORIENTED_EDGE ( 'NONE', *, *, #208, .F. ) ;
#47 = PERSON_AND_ORGANIZATION ( #103, #236 ) ;
#48 = VERTEX_POINT ( 'NONE', #207 ) ;
#49 = ADVANCED_FACE ( 'NONE', ( #297, #221 ), #17, .T. ) ;
#50 = DIRECTION ( 'NONE',  ( 0.000000000000000000, 0.000000000000000000, 1.000000000000000000 ) ) ;
#51 = DIRECTION ( 'NONE',  ( 1.000000000000000000, 0.000000000000000000, 0.000000000000000000 ) ) ;
#52 = VECTOR ( 'NONE', #214, 1000.000000000000000 ) ;
#53 = FACE_OUTER_BOUND ( 'NONE', #253, .T. ) ;
#54 = CARTESIAN_POINT ( 'NONE',  ( 4.450000000000000178, 0.000000000000000000, 5.000000000000005329 ) ) ;
#55 = AXIS2_PLACEMENT_3D ( 'NONE', #304, #296, #74 ) ;
#56 = DIRECTION ( 'NONE',  ( 0.000000000000000000, 0.000000000000000000, 1.000000000000000000 ) ) ;
#57 = VERTEX_POINT ( 'NONE', #201 ) ;
#58 = EDGE_LOOP ( 'NONE', ( #132, #269, #218, #219 ) ) ;
#59 = AXIS2_PLACEMENT_3D ( 'NONE', #160, #229, #39 ) ;
#60 = ADVANCED_FACE ( 'NONE', ( #90 ), #184, .F. ) ;
#61 = EDGE_CURVE ( 'NONE', #220, #48, #95, .T. ) ;
#62 = LOCAL_TIME ( 14, 31, 4.000000000000000000, #179 ) ;
#63 =( NAMED_UNIT ( * ) SI_UNIT ( $, .STERADIAN. ) SOLID_ANGLE_UNIT ( ) );
#64 = ORIENTED_EDGE ( 'NONE', *, *, #240, .F. ) ;
#65 = PERSON_AND_ORGANIZATION ( #103, #236 ) ;
#66 = EDGE_LOOP ( 'NONE', ( #278, #70 ) ) ;
#67 = APPROVAL_ROLE ( '' ) ;
#68 = VERTEX_POINT ( 'NONE', #276 ) ;
#69 = AXIS2_PLACEMENT_3D ( 'NONE', #211, #1, #168 ) ;
#70 = ORIENTED_EDGE ( 'NONE', *, *, #10, .T. ) ;
#71 = PERSON_AND_ORGANIZATION_ROLE ( 'classification_officer' ) ;
#72 = CARTESIAN_POINT ( 'NONE',  ( 0.000000000000000000, 0.000000000000000000, 5.200000000000009948 ) ) ;
#73 = DATE_AND_TIME ( #302, #62 ) ;
#74 = DIRECTION ( 'NONE',  ( 1.000000000000000000, 0.000000000000000000, 0.000000000000000000 ) ) ;
#75 = DIRECTION ( 'NONE',  ( 1.000000000000000000, 0.000000000000000000, 0.000000000000000000 ) ) ;
#76 = DIRECTION ( 'NONE',  ( -0.000000000000000000, -0.000000000000000000, -1.000000000000000000 ) ) ;
#77 = DIRECTION ( 'NONE',  ( 0.000000000000000000, -1.000000000000000000, 0.000000000000000000 ) ) ;
#78 = CC_DESIGN_PERSON_AND_ORGANIZATION_ASSIGNMENT ( #19, #71, ( #194 ) ) ;
#79 = CARTESIAN_POINT ( 'NONE',  ( 4.450000000000000178, 0.000000000000000000, 5.200000000000009948 ) ) ;
#80 = CARTESIAN_POINT ( 'NONE',  ( -4.250000000000000000, 0.000000000000000000, 5.200000000000009948 ) ) ;
#81 = ADVANCED_FACE ( 'NONE', ( #280 ), #86, .F. ) ;
#82 = ORIENTED_EDGE ( 'NONE', *, *, #172, .T. ) ;
#83 = EDGE_LOOP ( 'NONE', ( #183, #196, #151, #204 ) ) ;
#84 = CC_DESIGN_DATE_AND_TIME_ASSIGNMENT ( #222, #131, ( #216 ) ) ;
#85 =( NAMED_UNIT ( * ) PLANE_ANGLE_UNIT ( ) SI_UNIT ( $, .RADIAN. ) );
#86 = TOROIDAL_SURFACE ( 'NONE', #55, 4.450000000000000178, 0.2000000000000000111 ) ;
#87 = ORIENTED_EDGE ( 'NONE', *, *, #127, .F. ) ;
#88 = APPROVAL_STATUS ( 'not_yet_approved' ) ;
#89 = DIRECTION ( 'NONE',  ( -1.000000000000000000, 1.224646799147353454E-16, 0.000000000000000000 ) ) ;
#90 = FACE_OUTER_BOUND ( 'NONE', #23, .T. ) ;
#91 = CALENDAR_DATE ( 2022, 7, 7 ) ;
#92 = CARTESIAN_POINT ( 'NONE',  ( -4.250000000000000000, 0.000000000000000000, 255.0000000000000000 ) ) ;
#93 = EDGE_CURVE ( 'NONE', #250, #108, #263, .T. ) ;
#94 = DIRECTION ( 'NONE',  ( 0.000000000000000000, 0.000000000000000000, 1.000000000000000000 ) ) ;
#95 = CIRCLE ( 'NONE', #109, 7.000000000000000000 ) ;
#96 = CYLINDRICAL_SURFACE ( 'NONE', #210, 4.250000000000000000 ) ;
#97 = APPROVAL_DATE_TIME ( #252, #44 ) ;
#98 = LINE ( 'NONE', #8, #40 ) ;
#99 = FACE_OUTER_BOUND ( 'NONE', #58, .T. ) ;
#100 = VECTOR ( 'NONE', #135, 1000.000000000000000 ) ;
#101 = EDGE_CURVE ( 'NONE', #266, #250, #177, .T. ) ;
#102 = DIRECTION ( 'NONE',  ( -1.000000000000000000, 0.000000000000000000, 0.000000000000000000 ) ) ;
#103 = PERSON ( 'NEURÈENÝ', 'NEURÈENÝ', 'NEURÈENÝ', ('NEURÈENÝ'), ('NEURÈENÝ'), ('NEURÈENÝ') ) ;
#104 = CIRCLE ( 'NONE', #69, 4.250000000000000000 ) ;
#105 = CYLINDRICAL_SURFACE ( 'NONE', #254, 4.250000000000000000 ) ;
#106 = AXIS2_PLACEMENT_3D ( 'NONE', #270, #112, #295 ) ;
#107 = ADVANCED_FACE ( 'NONE', ( #192 ), #281, .F. ) ;
#108 = VERTEX_POINT ( 'NONE', #234 ) ;
#109 = AXIS2_PLACEMENT_3D ( 'NONE', #185, #161, #178 ) ;
#110 = DATE_TIME_ROLE ( 'classification_date' ) ;
#111 = DIRECTION ( 'NONE',  ( 1.000000000000000000, 0.000000000000000000, -0.000000000000000000 ) ) ;
#112 = DIRECTION ( 'NONE',  ( 0.000000000000000000, 0.000000000000000000, 1.000000000000000000 ) ) ;
#113 = CLOSED_SHELL ( 'NONE', ( #60, #166, #12, #213, #49, #107, #243, #272, #81 ) ) ;
#114 = CARTESIAN_POINT ( 'NONE',  ( 0.000000000000000000, 0.000000000000000000, 5.000000000000000000 ) ) ;
#115 = ORIENTED_EDGE ( 'NONE', *, *, #127, .T. ) ;
#116 = COORDINATED_UNIVERSAL_TIME_OFFSET ( 1, 0, .AHEAD. ) ;
#117 = CARTESIAN_POINT ( 'NONE',  ( 0.000000000000000000, 0.000000000000000000, 5.000000000000000000 ) ) ;
#118 = DIRECTION ( 'NONE',  ( 1.000000000000000000, 0.000000000000000000, 0.000000000000000000 ) ) ;
#119 = DIRECTION ( 'NONE',  ( 0.000000000000000000, 0.000000000000000000, 1.000000000000000000 ) ) ;
#120 = DIRECTION ( 'NONE',  ( 1.000000000000000000, 0.000000000000000000, -0.000000000000000000 ) ) ;
#121 = EDGE_CURVE ( 'NONE', #57, #266, #200, .T. ) ;
#122 = CARTESIAN_POINT ( 'NONE',  ( 0.000000000000000000, 0.000000000000000000, 255.0000000000000000 ) ) ;
#123 = CARTESIAN_POINT ( 'NONE',  ( 0.000000000000000000, 0.000000000000000000, 0.000000000000000000 ) ) ;
#124 = AXIS2_PLACEMENT_3D ( 'NONE', #239, #235, #118 ) ;
#125 = VERTEX_POINT ( 'NONE', #54 ) ;
#126 = AXIS2_PLACEMENT_3D ( 'NONE', #286, #255, #146 ) ;
#127 = EDGE_CURVE ( 'NONE', #48, #220, #289, .T. ) ;
#128 = ORIENTED_EDGE ( 'NONE', *, *, #31, .F. ) ;
#129 = CIRCLE ( 'NONE', #38, 4.450000000000000178 ) ;
#130 = PERSON_AND_ORGANIZATION ( #103, #236 ) ;
#131 = DATE_TIME_ROLE ( 'creation_date' ) ;
#132 = ORIENTED_EDGE ( 'NONE', *, *, #187, .F. ) ;
#133 = AXIS2_PLACEMENT_3D ( 'NONE', #79, #77, #260 ) ;
#134 = APPROVAL_DATE_TIME ( #73, #191 ) ;
#135 = DIRECTION ( 'NONE',  ( -0.000000000000000000, -0.000000000000000000, -1.000000000000000000 ) ) ;
#136 = PERSON_AND_ORGANIZATION_ROLE ( 'creator' ) ;
#137 = DIRECTION ( 'NONE',  ( -0.000000000000000000, -0.000000000000000000, -1.000000000000000000 ) ) ;
#138 = PERSON_AND_ORGANIZATION ( #103, #236 ) ;
#139 = ORIENTED_EDGE ( 'NONE', *, *, #224, .T. ) ;
#140 = AXIS2_PLACEMENT_3D ( 'NONE', #6, #262, #102 ) ;
#141 = CC_DESIGN_APPROVAL ( #44, ( #194 ) ) ;
#142 = COORDINATED_UNIVERSAL_TIME_OFFSET ( 1, 0, .AHEAD. ) ;
#143 = LINE ( 'NONE', #198, #100 ) ;
#144 = DIRECTION ( 'NONE',  ( 0.000000000000000000, 0.000000000000000000, 1.000000000000000000 ) ) ;
#145 = PLANE ( 'NONE',  #35 ) ;
#146 = DIRECTION ( 'NONE',  ( 1.000000000000000000, 0.000000000000000000, 0.000000000000000000 ) ) ;
#147 = CARTESIAN_POINT ( 'NONE',  ( 0.000000000000000000, 0.000000000000000000, 0.000000000000000000 ) ) ;
#148 = CC_DESIGN_PERSON_AND_ORGANIZATION_ASSIGNMENT ( #226, #21, ( #259 ) ) ;
#149 = DIRECTION ( 'NONE',  ( 1.000000000000000000, 0.000000000000000000, -0.000000000000000000 ) ) ;
#150 = CC_DESIGN_SECURITY_CLASSIFICATION ( #194, ( #259 ) ) ;
#151 = ORIENTED_EDGE ( 'NONE', *, *, #153, .T. ) ;
#152 = UNCERTAINTY_MEASURE_WITH_UNIT (LENGTH_MEASURE( 1.000000000000000082E-05 ), #186, 'distance_accuracy_value', 'NONE');
#153 = EDGE_CURVE ( 'NONE', #36, #125, #215, .T. ) ;
#154 = ORIENTED_EDGE ( 'NONE', *, *, #187, .T. ) ;
#155 = CIRCLE ( 'NONE', #124, 7.000000000000000000 ) ;
#156 = ORIENTED_EDGE ( 'NONE', *, *, #121, .T. ) ;
#157 = CARTESIAN_POINT ( 'NONE',  ( 0.000000000000000000, 0.000000000000000000, 5.000000000000000000 ) ) ;
#158 = CIRCLE ( 'NONE', #258, 7.000000000000000000 ) ;
#159 = CC_DESIGN_APPROVAL ( #191, ( #216 ) ) ;
#160 = CARTESIAN_POINT ( 'NONE',  ( 0.000000000000000000, 0.000000000000000000, 5.000000000000000000 ) ) ;
#161 = DIRECTION ( 'NONE',  ( 0.000000000000000000, 0.000000000000000000, 1.000000000000000000 ) ) ;
#162 = AXIS2_PLACEMENT_3D ( 'NONE', #123, #50, #120 ) ;
#163 = CALENDAR_DATE ( 2022, 7, 7 ) ;
#164 = CARTESIAN_POINT ( 'NONE',  ( -4.450000000000000178, 5.449678256205721784E-16, 5.200000000000009948 ) ) ;
#165 = FACE_OUTER_BOUND ( 'NONE', #245, .T. ) ;
#166 = ADVANCED_FACE ( 'NONE', ( #165 ), #96, .T. ) ;
#167 = DIRECTION ( 'NONE',  ( -1.000000000000000000, 0.000000000000000000, 0.000000000000000000 ) ) ;
#168 = DIRECTION ( 'NONE',  ( 1.000000000000000000, 0.000000000000000000, 0.000000000000000000 ) ) ;
#169 = LOCAL_TIME ( 14, 31, 4.000000000000000000, #142 ) ;
#170 = CARTESIAN_POINT ( 'NONE',  ( 0.000000000000000000, 0.000000000000000000, 255.0000000000000000 ) ) ;
#171 = CARTESIAN_POINT ( 'NONE',  ( 0.000000000000000000, 0.000000000000000000, 255.0000000000000000 ) ) ;
#172 = EDGE_CURVE ( 'NONE', #266, #57, #2, .T. ) ;
#173 = DESIGN_CONTEXT ( 'detailed design', #261, 'design' ) ;
#174 = ORIENTED_EDGE ( 'NONE', *, *, #231, .T. ) ;
#175 = ORIENTED_EDGE ( 'NONE', *, *, #208, .T. ) ;
#176 = CC_DESIGN_APPROVAL ( #251, ( #259 ) ) ;
#177 = LINE ( 'NONE', #92, #249 ) ;
#178 = DIRECTION ( 'NONE',  ( 1.000000000000000000, 0.000000000000000000, 0.000000000000000000 ) ) ;
#179 = COORDINATED_UNIVERSAL_TIME_OFFSET ( 1, 0, .AHEAD. ) ;
#180 = ORIENTED_EDGE ( 'NONE', *, *, #27, .F. ) ;
#181 = LOCAL_TIME ( 14, 31, 4.000000000000000000, #298 ) ;
#182 = APPROVAL_STATUS ( 'not_yet_approved' ) ;
#183 = ORIENTED_EDGE ( 'NONE', *, *, #93, .F. ) ;
#184 = TOROIDAL_SURFACE ( 'NONE', #45, 4.450000000000000178, 0.2000000000000000111 ) ;
#185 = CARTESIAN_POINT ( 'NONE',  ( 0.000000000000000000, 0.000000000000000000, 5.000000000000000000 ) ) ;
#186 =( LENGTH_UNIT ( ) NAMED_UNIT ( * ) SI_UNIT ( .MILLI., .METRE. ) );
#187 = EDGE_CURVE ( 'NONE', #48, #242, #30, .T. ) ;
#188 = DIRECTION ( 'NONE',  ( -0.000000000000000000, -0.000000000000000000, -1.000000000000000000 ) ) ;
#189 = CARTESIAN_POINT ( 'NONE',  ( 0.000000000000000000, 0.000000000000000000, 255.0000000000000000 ) ) ;
#190 = CIRCLE ( 'NONE', #59, 4.450000000000000178 ) ;
#191 = APPROVAL ( #88, 'NEURÈENÝ' ) ;
#192 = FACE_OUTER_BOUND ( 'NONE', #306, .T. ) ;
#193 = DIRECTION ( 'NONE',  ( 0.000000000000000000, 0.000000000000000000, 1.000000000000000000 ) ) ;
#194 = SECURITY_CLASSIFICATION ( '', '', #206 ) ;
#195 = EDGE_LOOP ( 'NONE', ( #33, #115 ) ) ;
#196 = ORIENTED_EDGE ( 'NONE', *, *, #224, .F. ) ;
#197 = PERSON_AND_ORGANIZATION ( #103, #236 ) ;
#198 = CARTESIAN_POINT ( 'NONE',  ( 4.250000000000000000, 5.204748896376250699E-16, 255.0000000000000000 ) ) ;
#199 = ORIENTED_EDGE ( 'NONE', *, *, #231, .F. ) ;
#200 = CIRCLE ( 'NONE', #265, 4.250000000000000000 ) ;
#201 = CARTESIAN_POINT ( 'NONE',  ( 4.250000000000000000, 5.204748896376250699E-16, 255.0000000000000000 ) ) ;
#202 = APPLICATION_CONTEXT ( 'configuration controlled 3d designs of mechanical parts and assemblies' ) ;
#203 = APPROVAL_ROLE ( '' ) ;
#204 = ORIENTED_EDGE ( 'NONE', *, *, #10, .F. ) ;
#205 = LOCAL_TIME ( 14, 31, 4.000000000000000000, #228 ) ;
#206 = SECURITY_CLASSIFICATION_LEVEL ( 'unclassified' ) ;
#207 = CARTESIAN_POINT ( 'NONE',  ( 7.000000000000000000, 8.572527594031473190E-16, 5.000000000000000000 ) ) ;
#208 = EDGE_CURVE ( 'NONE', #242, #68, #158, .T. ) ;
#209 = CARTESIAN_POINT ( 'NONE',  ( 0.000000000000000000, 0.000000000000000000, 255.0000000000000000 ) ) ;
#210 = AXIS2_PLACEMENT_3D ( 'NONE', #170, #76, #28 ) ;
#211 = CARTESIAN_POINT ( 'NONE',  ( 0.000000000000000000, 0.000000000000000000, 5.200000000000009948 ) ) ;
#212 = DIRECTION ( 'NONE',  ( 1.000000000000000000, 0.000000000000000000, 0.000000000000000000 ) ) ;
#213 = ADVANCED_FACE ( 'NONE', ( #99 ), #237, .T. ) ;
#214 = DIRECTION ( 'NONE',  ( -0.000000000000000000, -0.000000000000000000, -1.000000000000000000 ) ) ;
#215 = CIRCLE ( 'NONE', #133, 0.1999999999999996503 ) ;
#216 = PRODUCT_DEFINITION ( 'NEZNÁMÝ', '', #259, #173 ) ;
#217 = ORIENTED_EDGE ( 'NONE', *, *, #121, .F. ) ;
#218 = ORIENTED_EDGE ( 'NONE', *, *, #240, .T. ) ;
#219 = ORIENTED_EDGE ( 'NONE', *, *, #301, .T. ) ;
#220 = VERTEX_POINT ( 'NONE', #290 ) ;
#221 = FACE_OUTER_BOUND ( 'NONE', #195, .T. ) ;
#222 = DATE_AND_TIME ( #91, #205 ) ;
#223 = ORIENTED_EDGE ( 'NONE', *, *, #172, .F. ) ;
#224 = EDGE_CURVE ( 'NONE', #36, #250, #104, .T. ) ;
#225 = PRODUCT_DEFINITION_SHAPE ( 'NONE', 'NONE',  #216 ) ;
#226 = PERSON_AND_ORGANIZATION ( #103, #236 ) ;
#227 = CYLINDRICAL_SURFACE ( 'NONE', #267, 7.000000000000000000 ) ;
#228 = COORDINATED_UNIVERSAL_TIME_OFFSET ( 1, 0, .AHEAD. ) ;
#229 = DIRECTION ( 'NONE',  ( -0.000000000000000000, -0.000000000000000000, -1.000000000000000000 ) ) ;
#230 = LOCAL_TIME ( 14, 31, 4.000000000000000000, #116 ) ;
#231 = EDGE_CURVE ( 'NONE', #250, #36, #22, .T. ) ;
#232 = APPROVAL_STATUS ( 'not_yet_approved' ) ;
#233 = FACE_OUTER_BOUND ( 'NONE', #14, .T. ) ;
#234 = CARTESIAN_POINT ( 'NONE',  ( -4.450000000000000178, 5.449678256205721784E-16, 5.000000000000005329 ) ) ;
#235 = DIRECTION ( 'NONE',  ( 0.000000000000000000, 0.000000000000000000, 1.000000000000000000 ) ) ;
#236 = ORGANIZATION ( 'NEURÈENÝ', 'NEURÈENÝ', '' ) ;
#237 = CYLINDRICAL_SURFACE ( 'NONE', #140, 7.000000000000000000 ) ;
#238 = CARTESIAN_POINT ( 'NONE',  ( 0.000000000000000000, 0.000000000000000000, 5.200000000000009948 ) ) ;
#239 = CARTESIAN_POINT ( 'NONE',  ( 0.000000000000000000, 0.000000000000000000, 0.000000000000000000 ) ) ;
#240 = EDGE_CURVE ( 'NONE', #220, #68, #98, .T. ) ;
#241 = APPLICATION_PROTOCOL_DEFINITION ( 'international standard', 'config_control_design', 1994, #202 ) ;
#242 = VERTEX_POINT ( 'NONE', #284 ) ;
#243 = ADVANCED_FACE ( 'NONE', ( #29 ), #105, .T. ) ;
#244 = APPLICATION_PROTOCOL_DEFINITION ( 'international standard', 'config_control_design', 1994, #261 ) ;
#245 = EDGE_LOOP ( 'NONE', ( #217, #11, #139, #9 ) ) ;
#246 = DIRECTION ( 'NONE',  ( -1.000000000000000000, 0.000000000000000000, 0.000000000000000000 ) ) ;
#247 = APPROVAL_DATE_TIME ( #274, #251 ) ;
#248 = DIRECTION ( 'NONE',  ( 0.000000000000000000, 0.000000000000000000, 1.000000000000000000 ) ) ;
#249 = VECTOR ( 'NONE', #271, 1000.000000000000000 ) ;
#250 = VERTEX_POINT ( 'NONE', #80 ) ;
#251 = APPROVAL ( #182, 'NEURÈENÝ' ) ;
#252 = DATE_AND_TIME ( #163, #169 ) ;
#253 = EDGE_LOOP ( 'NONE', ( #82, #156 ) ) ;
#254 = AXIS2_PLACEMENT_3D ( 'NONE', #189, #4, #167 ) ;
#255 = DIRECTION ( 'NONE',  ( 0.000000000000000000, 0.000000000000000000, 1.000000000000000000 ) ) ;
#256 = CARTESIAN_POINT ( 'NONE',  ( 7.000000000000000000, 8.572527594031473190E-16, 5.000000000000000000 ) ) ;
#257 = CARTESIAN_POINT ( 'NONE',  ( -4.250000000000000000, 0.000000000000000000, 255.0000000000000000 ) ) ;
#258 = AXIS2_PLACEMENT_3D ( 'NONE', #147, #193, #51 ) ;
#259 = PRODUCT_DEFINITION_FORMATION_WITH_SPECIFIED_SOURCE ( 'LIBOVOLNÝ', '', #307, .NOT_KNOWN. ) ;
#260 = DIRECTION ( 'NONE',  ( 0.000000000000000000, 0.000000000000000000, -1.000000000000000000 ) ) ;
#261 = APPLICATION_CONTEXT ( 'configuration controlled 3d designs of mechanical parts and assemblies' ) ;
#262 = DIRECTION ( 'NONE',  ( -0.000000000000000000, -0.000000000000000000, -1.000000000000000000 ) ) ;
#263 = CIRCLE ( 'NONE', #26, 0.1999999999999996503 ) ;
#264 = ORIENTED_EDGE ( 'NONE', *, *, #301, .F. ) ;
#265 = AXIS2_PLACEMENT_3D ( 'NONE', #122, #144, #212 ) ;
#266 = VERTEX_POINT ( 'NONE', #257 ) ;
#267 = AXIS2_PLACEMENT_3D ( 'NONE', #157, #137, #246 ) ;
#268 = APPROVAL_PERSON_ORGANIZATION ( #138, #191, #203 ) ;
#269 = ORIENTED_EDGE ( 'NONE', *, *, #61, .F. ) ;
#270 = CARTESIAN_POINT ( 'NONE',  ( 0.000000000000000000, 0.000000000000000000, 0.000000000000000000 ) ) ;
#271 = DIRECTION ( 'NONE',  ( -0.000000000000000000, -0.000000000000000000, -1.000000000000000000 ) ) ;
#272 = ADVANCED_FACE ( 'NONE', ( #53 ), #145, .T. ) ;
#273 = DIRECTION ( 'NONE',  ( 1.000000000000000000, 0.000000000000000000, 0.000000000000000000 ) ) ;
#274 = DATE_AND_TIME ( #277, #181 ) ;
#275 = APPROVAL_PERSON_ORGANIZATION ( #130, #251, #67 ) ;
#276 = CARTESIAN_POINT ( 'NONE',  ( -7.000000000000000000, 0.000000000000000000, 0.000000000000000000 ) ) ;
#277 = CALENDAR_DATE ( 2022, 7, 7 ) ;
#278 = ORIENTED_EDGE ( 'NONE', *, *, #27, .T. ) ;
#279 = PERSON_AND_ORGANIZATION_ROLE ( 'creator' ) ;
#280 = FACE_OUTER_BOUND ( 'NONE', #83, .T. ) ;
#281 = PLANE ( 'NONE',  #162 ) ;
#282 =( GEOMETRIC_REPRESENTATION_CONTEXT ( 3 ) GLOBAL_UNCERTAINTY_ASSIGNED_CONTEXT ( ( #152 ) ) GLOBAL_UNIT_ASSIGNED_CONTEXT ( ( #186, #85, #63 ) ) REPRESENTATION_CONTEXT ( 'NONE', 'WORKASPACE' ) );
#283 = SHAPE_DEFINITION_REPRESENTATION ( #225, #18 ) ;
#284 = CARTESIAN_POINT ( 'NONE',  ( 7.000000000000000000, 8.572527594031473190E-16, 0.000000000000000000 ) ) ;
#285 = CC_DESIGN_DATE_AND_TIME_ASSIGNMENT ( #13, #110, ( #194 ) ) ;
#286 = CARTESIAN_POINT ( 'NONE',  ( 0.000000000000000000, 0.000000000000000000, 5.000000000000000000 ) ) ;
#287 = MANIFOLD_SOLID_BREP ( 'Zaoblit1', #113 ) ;
#288 = DIRECTION ( 'NONE',  ( 0.000000000000000000, 0.000000000000000000, 1.000000000000000000 ) ) ;
#289 = CIRCLE ( 'NONE', #126, 7.000000000000000000 ) ;
#290 = CARTESIAN_POINT ( 'NONE',  ( -7.000000000000000000, 0.000000000000000000, 5.000000000000000000 ) ) ;
#291 = ORIENTED_EDGE ( 'NONE', *, *, #93, .T. ) ;
#292 = AXIS2_PLACEMENT_3D ( 'NONE', #209, #119, #75 ) ;
#293 = AXIS2_PLACEMENT_3D ( 'NONE', #238, #288, #32 ) ;
#294 = ORIENTED_EDGE ( 'NONE', *, *, #101, .T. ) ;
#295 = DIRECTION ( 'NONE',  ( 1.000000000000000000, 0.000000000000000000, 0.000000000000000000 ) ) ;
#296 = DIRECTION ( 'NONE',  ( 0.000000000000000000, 0.000000000000000000, 1.000000000000000000 ) ) ;
#297 = FACE_BOUND ( 'NONE', #66, .T. ) ;
#298 = COORDINATED_UNIVERSAL_TIME_OFFSET ( 1, 0, .AHEAD. ) ;
#299 = CARTESIAN_POINT ( 'NONE',  ( 4.250000000000000000, 5.204748896376250699E-16, 5.200000000000009948 ) ) ;
#300 = CC_DESIGN_PERSON_AND_ORGANIZATION_ASSIGNMENT ( #197, #279, ( #216 ) ) ;
#301 = EDGE_CURVE ( 'NONE', #68, #242, #155, .T. ) ;
#302 = CALENDAR_DATE ( 2022, 7, 7 ) ;
#303 = APPROVAL_PERSON_ORGANIZATION ( #47, #44, #24 ) ;
#304 = CARTESIAN_POINT ( 'NONE',  ( 0.000000000000000000, 0.000000000000000000, 5.200000000000009948 ) ) ;
#305 = CALENDAR_DATE ( 2022, 7, 7 ) ;
#306 = EDGE_LOOP ( 'NONE', ( #264, #46 ) ) ;
#307 = PRODUCT ( '748e', '748e', '', ( #15 ) ) ;
ENDSEC;
END-ISO-10303-21;
