ISO-10303-21;
HEADER;
FILE_DESCRIPTION (( 'STEP AP203' ),
    '1' );
FILE_NAME ('8d5c.STEP',
    '2022-07-07T12:20:36',
    ( '' ),
    ( '' ),
    'SwSTEP 2.0',
    'SolidWorks 2019',
    '' );
FILE_SCHEMA (( 'CONFIG_CONTROL_DESIGN' ));
ENDSEC;

DATA;
#1 = DIRECTION ( 'NONE',  ( 1.000000000000000000, 0.000000000000000000, 0.000000000000000000 ) ) ;
#2 = AXIS2_PLACEMENT_3D ( 'NONE', #255, #64, #120 ) ;
#3 = DIRECTION ( 'NONE',  ( 0.000000000000000000, 0.000000000000000000, 1.000000000000000000 ) ) ;
#4 = ADVANCED_FACE ( 'NONE', ( #225 ), #13, .F. ) ;
#5 = CARTESIAN_POINT ( 'NONE',  ( 0.000000000000000000, 0.000000000000000000, 7.000000000000000000 ) ) ;
#6 = DIRECTION ( 'NONE',  ( 0.000000000000000000, 0.000000000000000000, 1.000000000000000000 ) ) ;
#7 = AXIS2_PLACEMENT_3D ( 'NONE', #193, #6, #154 ) ;
#8 = CC_DESIGN_APPROVAL ( #156, ( #252 ) ) ;
#9 = EDGE_CURVE ( 'NONE', #108, #271, #127, .T. ) ;
#10 = ORIENTED_EDGE ( 'NONE', *, *, #297, .F. ) ;
#11 = EDGE_LOOP ( 'NONE', ( #270, #82 ) ) ;
#12 = AXIS2_PLACEMENT_3D ( 'NONE', #166, #44, #239 ) ;
#13 = PLANE ( 'NONE',  #215 ) ;
#14 = CC_DESIGN_DATE_AND_TIME_ASSIGNMENT ( #201, #57, ( #153 ) ) ;
#15 = COORDINATED_UNIVERSAL_TIME_OFFSET ( 1, 0, .AHEAD. ) ;
#16 = CARTESIAN_POINT ( 'NONE',  ( 0.000000000000000000, 0.000000000000000000, 322.0000000000000000 ) ) ;
#17 = PERSON_AND_ORGANIZATION_ROLE ( 'design_supplier' ) ;
#18 = ORIENTED_EDGE ( 'NONE', *, *, #115, .F. ) ;
#19 = TOROIDAL_SURFACE ( 'NONE', #299, 8.200000000000001066, 0.2000000000000000111 ) ;
#20 = PERSON_AND_ORGANIZATION ( #202, #102 ) ;
#21 = DIRECTION ( 'NONE',  ( -0.000000000000000000, -0.000000000000000000, -1.000000000000000000 ) ) ;
#22 = DIRECTION ( 'NONE',  ( -0.000000000000000000, -0.000000000000000000, -1.000000000000000000 ) ) ;
#23 = CARTESIAN_POINT ( 'NONE',  ( -8.000000000000000000, 0.000000000000000000, 322.0000000000000000 ) ) ;
#24 = APPROVAL_DATE_TIME ( #227, #156 ) ;
#25 = DIRECTION ( 'NONE',  ( -0.000000000000000000, -0.000000000000000000, -1.000000000000000000 ) ) ;
#26 = CC_DESIGN_DATE_AND_TIME_ASSIGNMENT ( #211, #142, ( #252 ) ) ;
#27 = CARTESIAN_POINT ( 'NONE',  ( 8.000000000000000000, 9.797174393178825657E-16, 322.0000000000000000 ) ) ;
#28 = PERSON_AND_ORGANIZATION ( #202, #102 ) ;
#29 = EDGE_CURVE ( 'NONE', #108, #295, #235, .T. ) ;
#30 = DIRECTION ( 'NONE',  ( -0.000000000000000000, -0.000000000000000000, -1.000000000000000000 ) ) ;
#31 = DIRECTION ( 'NONE',  ( 0.000000000000000000, 0.000000000000000000, 1.000000000000000000 ) ) ;
#32 = EDGE_LOOP ( 'NONE', ( #247, #158, #52, #132 ) ) ;
#33 = EDGE_LOOP ( 'NONE', ( #36, #157, #160, #133 ) ) ;
#34 = AXIS2_PLACEMENT_3D ( 'NONE', #67, #22, #116 ) ;
#35 = ORIENTED_EDGE ( 'NONE', *, *, #89, .F. ) ;
#36 = ORIENTED_EDGE ( 'NONE', *, *, #60, .F. ) ;
#37 = DIRECTION ( 'NONE',  ( 1.000000000000000000, 0.000000000000000000, 0.000000000000000000 ) ) ;
#38 = CIRCLE ( 'NONE', #224, 11.00000000000000000 ) ;
#39 = COORDINATED_UNIVERSAL_TIME_OFFSET ( 1, 0, .AHEAD. ) ;
#40 = CARTESIAN_POINT ( 'NONE',  ( 0.000000000000000000, 0.000000000000000000, 322.0000000000000000 ) ) ;
#41 = DATE_AND_TIME ( #145, #148 ) ;
#42 = DIRECTION ( 'NONE',  ( -0.000000000000000000, -0.000000000000000000, -1.000000000000000000 ) ) ;
#43 = CARTESIAN_POINT ( 'NONE',  ( 0.000000000000000000, 0.000000000000000000, 0.000000000000000000 ) ) ;
#44 = DIRECTION ( 'NONE',  ( -0.000000000000000000, -0.000000000000000000, -1.000000000000000000 ) ) ;
#45 = PERSON_AND_ORGANIZATION_ROLE ( 'design_owner' ) ;
#46 = CARTESIAN_POINT ( 'NONE',  ( 0.000000000000000000, 0.000000000000000000, 7.199999999999984190 ) ) ;
#47 = TOROIDAL_SURFACE ( 'NONE', #126, 8.200000000000001066, 0.2000000000000000111 ) ;
#48 = DIRECTION ( 'NONE',  ( 1.000000000000000000, 0.000000000000000000, 0.000000000000000000 ) ) ;
#49 = CIRCLE ( 'NONE', #71, 8.000000000000000000 ) ;
#50 = APPLICATION_CONTEXT ( 'configuration controlled 3d designs of mechanical parts and assemblies' ) ;
#51 = ADVANCED_BREP_SHAPE_REPRESENTATION ( '8d5c', ( #269, #265 ), #119 ) ;
#52 = ORIENTED_EDGE ( 'NONE', *, *, #97, .T. ) ;
#53 = ORIENTED_EDGE ( 'NONE', *, *, #115, .T. ) ;
#54 = EDGE_CURVE ( 'NONE', #295, #178, #197, .T. ) ;
#55 = ORIENTED_EDGE ( 'NONE', *, *, #228, .T. ) ;
#56 = ORIENTED_EDGE ( 'NONE', *, *, #260, .T. ) ;
#57 = DATE_TIME_ROLE ( 'creation_date' ) ;
#58 = ORIENTED_EDGE ( 'NONE', *, *, #243, .F. ) ;
#59 = FACE_OUTER_BOUND ( 'NONE', #291, .T. ) ;
#60 = EDGE_CURVE ( 'NONE', #271, #108, #278, .T. ) ;
#61 = PERSON_AND_ORGANIZATION_ROLE ( 'creator' ) ;
#62 = CARTESIAN_POINT ( 'NONE',  ( 0.000000000000000000, 0.000000000000000000, 322.0000000000000000 ) ) ;
#63 = APPROVAL_PERSON_ORGANIZATION ( #104, #219, #267 ) ;
#64 = DIRECTION ( 'NONE',  ( 0.000000000000000000, 0.000000000000000000, 1.000000000000000000 ) ) ;
#65 = CC_DESIGN_PERSON_AND_ORGANIZATION_ASSIGNMENT ( #177, #105, ( #153 ) ) ;
#66 = PERSON_AND_ORGANIZATION ( #202, #102 ) ;
#67 = CARTESIAN_POINT ( 'NONE',  ( 0.000000000000000000, 0.000000000000000000, 7.000000000000000000 ) ) ;
#68 = APPROVAL_STATUS ( 'not_yet_approved' ) ;
#69 = DIRECTION ( 'NONE',  ( 0.000000000000000000, 0.000000000000000000, -1.000000000000000000 ) ) ;
#70 = CC_DESIGN_APPROVAL ( #234, ( #153 ) ) ;
#71 = AXIS2_PLACEMENT_3D ( 'NONE', #185, #144, #302 ) ;
#72 = PLANE ( 'NONE',  #138 ) ;
#73 = FACE_OUTER_BOUND ( 'NONE', #11, .T. ) ;
#74 = DIRECTION ( 'NONE',  ( 0.000000000000000000, 0.000000000000000000, 1.000000000000000000 ) ) ;
#75 = VECTOR ( 'NONE', #307, 1000.000000000000000 ) ;
#76 = CC_DESIGN_PERSON_AND_ORGANIZATION_ASSIGNMENT ( #303, #274, ( #252 ) ) ;
#77 = FACE_OUTER_BOUND ( 'NONE', #80, .T. ) ;
#78 = EDGE_LOOP ( 'NONE', ( #55, #268 ) ) ;
#79 = PRODUCT_DEFINITION_FORMATION_WITH_SPECIFIED_SOURCE ( 'LIBOVOLNÝ', '', #91, .NOT_KNOWN. ) ;
#80 = EDGE_LOOP ( 'NONE', ( #18, #159, #249, #109 ) ) ;
#81 = CIRCLE ( 'NONE', #2, 8.000000000000000000 ) ;
#82 = ORIENTED_EDGE ( 'NONE', *, *, #60, .T. ) ;
#83 = APPROVAL_DATE_TIME ( #131, #234 ) ;
#84 = DIRECTION ( 'NONE',  ( 1.000000000000000000, 0.000000000000000000, -0.000000000000000000 ) ) ;
#85 = AXIS2_PLACEMENT_3D ( 'NONE', #151, #31, #195 ) ;
#86 = ORIENTED_EDGE ( 'NONE', *, *, #141, .F. ) ;
#87 = LOCAL_TIME ( 14, 20, 36.00000000000000000, #39 ) ;
#88 = CLOSED_SHELL ( 'NONE', ( #272, #183, #135, #187, #130, #4, #110, #206, #192 ) ) ;
#89 = EDGE_CURVE ( 'NONE', #106, #295, #49, .T. ) ;
#90 = CYLINDRICAL_SURFACE ( 'NONE', #101, 11.00000000000000000 ) ;
#91 = PRODUCT ( '8d5c', '8d5c', '', ( #155 ) ) ;
#92 = DIRECTION ( 'NONE',  ( 0.000000000000000000, 0.000000000000000000, 1.000000000000000000 ) ) ;
#93 = CARTESIAN_POINT ( 'NONE',  ( 8.200000000000001066, 0.000000000000000000, 7.199999999999984190 ) ) ;
#94 = AXIS2_PLACEMENT_3D ( 'NONE', #62, #186, #232 ) ;
#95 = FACE_OUTER_BOUND ( 'NONE', #292, .T. ) ;
#96 = CARTESIAN_POINT ( 'NONE',  ( 8.000000000000000000, 9.797174393178825657E-16, 7.199999999999984190 ) ) ;
#97 = EDGE_CURVE ( 'NONE', #175, #264, #38, .T. ) ;
#98 = DIRECTION ( 'NONE',  ( 1.000000000000000000, 0.000000000000000000, -0.000000000000000000 ) ) ;
#99 = DIRECTION ( 'NONE',  ( 0.000000000000000000, 0.000000000000000000, 1.000000000000000000 ) ) ;
#100 = EDGE_CURVE ( 'NONE', #106, #129, #266, .T. ) ;
#101 = AXIS2_PLACEMENT_3D ( 'NONE', #180, #21, #275 ) ;
#102 = ORGANIZATION ( 'NEURÈENÝ', 'NEURÈENÝ', '' ) ;
#103 = CARTESIAN_POINT ( 'NONE',  ( 8.000000000000000000, 9.797174393178825657E-16, 322.0000000000000000 ) ) ;
#104 = PERSON_AND_ORGANIZATION ( #202, #102 ) ;
#105 = PERSON_AND_ORGANIZATION_ROLE ( 'creator' ) ;
#106 = VERTEX_POINT ( 'NONE', #96 ) ;
#107 = ORIENTED_EDGE ( 'NONE', *, *, #250, .T. ) ;
#108 = VERTEX_POINT ( 'NONE', #23 ) ;
#109 = ORIENTED_EDGE ( 'NONE', *, *, #100, .F. ) ;
#110 = ADVANCED_FACE ( 'NONE', ( #95 ), #230, .T. ) ;
#111 = APPROVAL_DATE_TIME ( #41, #219 ) ;
#112 = VERTEX_POINT ( 'NONE', #205 ) ;
#113 = DIRECTION ( 'NONE',  ( 1.000000000000000000, 0.000000000000000000, 0.000000000000000000 ) ) ;
#114 = DESIGN_CONTEXT ( 'detailed design', #118, 'design' ) ;
#115 = EDGE_CURVE ( 'NONE', #295, #106, #81, .T. ) ;
#116 = DIRECTION ( 'NONE',  ( -1.000000000000000000, 0.000000000000000000, 0.000000000000000000 ) ) ;
#117 = DIRECTION ( 'NONE',  ( 0.000000000000000000, 0.000000000000000000, 1.000000000000000000 ) ) ;
#118 = APPLICATION_CONTEXT ( 'configuration controlled 3d designs of mechanical parts and assemblies' ) ;
#119 =( GEOMETRIC_REPRESENTATION_CONTEXT ( 3 ) GLOBAL_UNCERTAINTY_ASSIGNED_CONTEXT ( ( #254 ) ) GLOBAL_UNIT_ASSIGNED_CONTEXT ( ( #216, #285, #244 ) ) REPRESENTATION_CONTEXT ( 'NONE', 'WORKASPACE' ) );
#120 = DIRECTION ( 'NONE',  ( 1.000000000000000000, 0.000000000000000000, 0.000000000000000000 ) ) ;
#121 = PERSON_AND_ORGANIZATION ( #202, #102 ) ;
#122 = APPROVAL_STATUS ( 'not_yet_approved' ) ;
#123 = CIRCLE ( 'NONE', #210, 8.200000000000001066 ) ;
#124 = APPLICATION_PROTOCOL_DEFINITION ( 'international standard', 'config_control_design', 1994, #50 ) ;
#125 = DIRECTION ( 'NONE',  ( -0.000000000000000000, -0.000000000000000000, -1.000000000000000000 ) ) ;
#126 = AXIS2_PLACEMENT_3D ( 'NONE', #46, #99, #48 ) ;
#127 = CIRCLE ( 'NONE', #286, 8.000000000000000000 ) ;
#128 = APPROVAL_STATUS ( 'not_yet_approved' ) ;
#129 = VERTEX_POINT ( 'NONE', #162 ) ;
#130 = ADVANCED_FACE ( 'NONE', ( #209, #212 ), #149, .T. ) ;
#131 = DATE_AND_TIME ( #246, #167 ) ;
#132 = ORIENTED_EDGE ( 'NONE', *, *, #250, .F. ) ;
#133 = ORIENTED_EDGE ( 'NONE', *, *, #29, .F. ) ;
#134 = ORIENTED_EDGE ( 'NONE', *, *, #243, .T. ) ;
#135 = ADVANCED_FACE ( 'NONE', ( #280 ), #258, .T. ) ;
#136 = SECURITY_CLASSIFICATION_LEVEL ( 'unclassified' ) ;
#137 = COORDINATED_UNIVERSAL_TIME_OFFSET ( 1, 0, .AHEAD. ) ;
#138 = AXIS2_PLACEMENT_3D ( 'NONE', #213, #3, #98 ) ;
#139 = CARTESIAN_POINT ( 'NONE',  ( 0.000000000000000000, 0.000000000000000000, 7.000000000000000000 ) ) ;
#140 = PRODUCT_RELATED_PRODUCT_CATEGORY ( 'detail', '', ( #91 ) ) ;
#141 = EDGE_CURVE ( 'NONE', #178, #129, #123, .T. ) ;
#142 = DATE_TIME_ROLE ( 'classification_date' ) ;
#143 = DIRECTION ( 'NONE',  ( 1.000000000000000000, 0.000000000000000000, -0.000000000000000000 ) ) ;
#144 = DIRECTION ( 'NONE',  ( 0.000000000000000000, 0.000000000000000000, 1.000000000000000000 ) ) ;
#145 = CALENDAR_DATE ( 2022, 7, 7 ) ;
#146 = DIRECTION ( 'NONE',  ( 0.000000000000000000, 0.000000000000000000, 1.000000000000000000 ) ) ;
#147 = CIRCLE ( 'NONE', #223, 11.00000000000000000 ) ;
#148 = LOCAL_TIME ( 14, 20, 36.00000000000000000, #137 ) ;
#149 = PLANE ( 'NONE',  #305 ) ;
#150 = APPLICATION_PROTOCOL_DEFINITION ( 'international standard', 'config_control_design', 1994, #118 ) ;
#151 = CARTESIAN_POINT ( 'NONE',  ( 0.000000000000000000, 0.000000000000000000, 0.000000000000000000 ) ) ;
#152 = LOCAL_TIME ( 14, 20, 36.00000000000000000, #15 ) ;
#153 = PRODUCT_DEFINITION ( 'NEZNÁMÝ', '', #79, #114 ) ;
#154 = DIRECTION ( 'NONE',  ( 1.000000000000000000, 0.000000000000000000, 0.000000000000000000 ) ) ;
#155 = MECHANICAL_CONTEXT ( 'NONE', #50, 'mechanical' ) ;
#156 = APPROVAL ( #68, 'NEURÈENÝ' ) ;
#157 = ORIENTED_EDGE ( 'NONE', *, *, #170, .T. ) ;
#158 = ORIENTED_EDGE ( 'NONE', *, *, #297, .T. ) ;
#159 = ORIENTED_EDGE ( 'NONE', *, *, #54, .T. ) ;
#160 = ORIENTED_EDGE ( 'NONE', *, *, #89, .T. ) ;
#161 = EDGE_LOOP ( 'NONE', ( #56, #273 ) ) ;
#162 = CARTESIAN_POINT ( 'NONE',  ( 8.200000000000001066, 0.000000000000000000, 6.999999999999992006 ) ) ;
#163 = DIRECTION ( 'NONE',  ( -1.000000000000000000, 1.224646799147353207E-16, 0.000000000000000000 ) ) ;
#164 = LINE ( 'NONE', #27, #75 ) ;
#165 = CC_DESIGN_PERSON_AND_ORGANIZATION_ASSIGNMENT ( #20, #61, ( #79 ) ) ;
#166 = CARTESIAN_POINT ( 'NONE',  ( 0.000000000000000000, 0.000000000000000000, 322.0000000000000000 ) ) ;
#167 = LOCAL_TIME ( 14, 20, 36.00000000000000000, #220 ) ;
#168 = AXIS2_PLACEMENT_3D ( 'NONE', #40, #146, #37 ) ;
#169 = CARTESIAN_POINT ( 'NONE',  ( -11.00000000000000000, 0.000000000000000000, 7.000000000000000000 ) ) ;
#170 = EDGE_CURVE ( 'NONE', #271, #106, #164, .T. ) ;
#171 = DIRECTION ( 'NONE',  ( 0.000000000000000000, 0.000000000000000000, 1.000000000000000000 ) ) ;
#172 = DIRECTION ( 'NONE',  ( 1.000000000000000000, 0.000000000000000000, 0.000000000000000000 ) ) ;
#173 = ORIENTED_EDGE ( 'NONE', *, *, #100, .T. ) ;
#174 = CALENDAR_DATE ( 2022, 7, 7 ) ;
#175 = VERTEX_POINT ( 'NONE', #238 ) ;
#176 = ORIENTED_EDGE ( 'NONE', *, *, #54, .F. ) ;
#177 = PERSON_AND_ORGANIZATION ( #202, #102 ) ;
#178 = VERTEX_POINT ( 'NONE', #208 ) ;
#179 = ORIENTED_EDGE ( 'NONE', *, *, #170, .F. ) ;
#180 = CARTESIAN_POINT ( 'NONE',  ( 0.000000000000000000, 0.000000000000000000, 7.000000000000000000 ) ) ;
#181 = PRODUCT_DEFINITION_SHAPE ( 'NONE', 'NONE',  #153 ) ;
#182 = DIRECTION ( 'NONE',  ( 0.000000000000000000, -1.000000000000000000, 0.000000000000000000 ) ) ;
#183 = ADVANCED_FACE ( 'NONE', ( #279 ), #282, .T. ) ;
#184 = SHAPE_DEFINITION_REPRESENTATION ( #181, #51 ) ;
#185 = CARTESIAN_POINT ( 'NONE',  ( 0.000000000000000000, 0.000000000000000000, 7.199999999999984190 ) ) ;
#186 = DIRECTION ( 'NONE',  ( -0.000000000000000000, -0.000000000000000000, -1.000000000000000000 ) ) ;
#187 = ADVANCED_FACE ( 'NONE', ( #301 ), #90, .T. ) ;
#188 = DIRECTION ( 'NONE',  ( 1.000000000000000000, 0.000000000000000000, 0.000000000000000000 ) ) ;
#189 = DIRECTION ( 'NONE',  ( 1.000000000000000000, 0.000000000000000000, 0.000000000000000000 ) ) ;
#190 = VECTOR ( 'NONE', #30, 1000.000000000000000 ) ;
#191 = CARTESIAN_POINT ( 'NONE',  ( 11.00000000000000000, 1.347111479062088405E-15, 7.000000000000000000 ) ) ;
#192 = ADVANCED_FACE ( 'NONE', ( #59 ), #47, .F. ) ;
#193 = CARTESIAN_POINT ( 'NONE',  ( 0.000000000000000000, 0.000000000000000000, 7.000000000000000000 ) ) ;
#194 = APPROVAL_PERSON_ORGANIZATION ( #28, #234, #214 ) ;
#195 = DIRECTION ( 'NONE',  ( 1.000000000000000000, 0.000000000000000000, 0.000000000000000000 ) ) ;
#196 = EDGE_CURVE ( 'NONE', #248, #112, #147, .T. ) ;
#197 = CIRCLE ( 'NONE', #229, 0.2000000000000005107 ) ;
#198 = ORIENTED_EDGE ( 'NONE', *, *, #97, .F. ) ;
#199 = CC_DESIGN_PERSON_AND_ORGANIZATION_ASSIGNMENT ( #121, #45, ( #91 ) ) ;
#200 = CARTESIAN_POINT ( 'NONE',  ( 0.000000000000000000, 0.000000000000000000, 0.000000000000000000 ) ) ;
#201 = DATE_AND_TIME ( #174, #152 ) ;
#202 = PERSON ( 'NEURÈENÝ', 'NEURÈENÝ', 'NEURÈENÝ', ('NEURÈENÝ'), ('NEURÈENÝ'), ('NEURÈENÝ') ) ;
#203 = ORIENTED_EDGE ( 'NONE', *, *, #9, .F. ) ;
#204 = CALENDAR_DATE ( 2022, 7, 7 ) ;
#205 = CARTESIAN_POINT ( 'NONE',  ( -11.00000000000000000, 0.000000000000000000, 7.000000000000000000 ) ) ;
#206 = ADVANCED_FACE ( 'NONE', ( #73 ), #72, .T. ) ;
#207 = DIRECTION ( 'NONE',  ( 1.224646799147353207E-16, 1.000000000000000000, -0.000000000000000000 ) ) ;
#208 = CARTESIAN_POINT ( 'NONE',  ( -8.200000000000001066, 1.004210375300829674E-15, 6.999999999999992006 ) ) ;
#209 = FACE_BOUND ( 'NONE', #161, .T. ) ;
#210 = AXIS2_PLACEMENT_3D ( 'NONE', #139, #42, #256 ) ;
#211 = DATE_AND_TIME ( #233, #87 ) ;
#212 = FACE_OUTER_BOUND ( 'NONE', #78, .T. ) ;
#213 = CARTESIAN_POINT ( 'NONE',  ( 0.000000000000000000, 0.000000000000000000, 322.0000000000000000 ) ) ;
#214 = APPROVAL_ROLE ( '' ) ;
#215 = AXIS2_PLACEMENT_3D ( 'NONE', #200, #296, #84 ) ;
#216 =( LENGTH_UNIT ( ) NAMED_UNIT ( * ) SI_UNIT ( .MILLI., .METRE. ) );
#217 = DIRECTION ( 'NONE',  ( -0.000000000000000000, -0.000000000000000000, -1.000000000000000000 ) ) ;
#218 = CIRCLE ( 'NONE', #85, 11.00000000000000000 ) ;
#219 = APPROVAL ( #128, 'NEURÈENÝ' ) ;
#220 = COORDINATED_UNIVERSAL_TIME_OFFSET ( 1, 0, .AHEAD. ) ;
#221 = ORIENTED_EDGE ( 'NONE', *, *, #29, .T. ) ;
#222 = EDGE_LOOP ( 'NONE', ( #10, #298, #107, #134 ) ) ;
#223 = AXIS2_PLACEMENT_3D ( 'NONE', #251, #289, #1 ) ;
#224 = AXIS2_PLACEMENT_3D ( 'NONE', #43, #92, #188 ) ;
#225 = FACE_OUTER_BOUND ( 'NONE', #226, .T. ) ;
#226 = EDGE_LOOP ( 'NONE', ( #58, #198 ) ) ;
#227 = DATE_AND_TIME ( #204, #284 ) ;
#228 = EDGE_CURVE ( 'NONE', #112, #248, #237, .T. ) ;
#229 = AXIS2_PLACEMENT_3D ( 'NONE', #276, #207, #163 ) ;
#230 = CYLINDRICAL_SURFACE ( 'NONE', #94, 8.000000000000000000 ) ;
#231 = COORDINATED_UNIVERSAL_TIME_OFFSET ( 1, 0, .AHEAD. ) ;
#232 = DIRECTION ( 'NONE',  ( -1.000000000000000000, 0.000000000000000000, 0.000000000000000000 ) ) ;
#233 = CALENDAR_DATE ( 2022, 7, 7 ) ;
#234 = APPROVAL ( #122, 'NEURÈENÝ' ) ;
#235 = LINE ( 'NONE', #306, #300 ) ;
#236 = PERSON_AND_ORGANIZATION ( #202, #102 ) ;
#237 = CIRCLE ( 'NONE', #7, 11.00000000000000000 ) ;
#238 = CARTESIAN_POINT ( 'NONE',  ( 11.00000000000000000, 1.347111479062088405E-15, 0.000000000000000000 ) ) ;
#239 = DIRECTION ( 'NONE',  ( -1.000000000000000000, 0.000000000000000000, 0.000000000000000000 ) ) ;
#240 = CARTESIAN_POINT ( 'NONE',  ( 0.000000000000000000, 0.000000000000000000, 7.199999999999984190 ) ) ;
#241 = CARTESIAN_POINT ( 'NONE',  ( 11.00000000000000000, 1.347111479062088405E-15, 7.000000000000000000 ) ) ;
#242 = CC_DESIGN_SECURITY_CLASSIFICATION ( #252, ( #79 ) ) ;
#243 = EDGE_CURVE ( 'NONE', #264, #175, #218, .T. ) ;
#244 =( NAMED_UNIT ( * ) SI_UNIT ( $, .STERADIAN. ) SOLID_ANGLE_UNIT ( ) );
#245 = AXIS2_PLACEMENT_3D ( 'NONE', #93, #182, #69 ) ;
#246 = CALENDAR_DATE ( 2022, 7, 7 ) ;
#247 = ORIENTED_EDGE ( 'NONE', *, *, #196, .F. ) ;
#248 = VERTEX_POINT ( 'NONE', #191 ) ;
#249 = ORIENTED_EDGE ( 'NONE', *, *, #260, .F. ) ;
#250 = EDGE_CURVE ( 'NONE', #112, #264, #287, .T. ) ;
#251 = CARTESIAN_POINT ( 'NONE',  ( 0.000000000000000000, 0.000000000000000000, 7.000000000000000000 ) ) ;
#252 = SECURITY_CLASSIFICATION ( '', '', #136 ) ;
#253 = CARTESIAN_POINT ( 'NONE',  ( 0.000000000000000000, 0.000000000000000000, 7.000000000000000000 ) ) ;
#254 = UNCERTAINTY_MEASURE_WITH_UNIT (LENGTH_MEASURE( 1.000000000000000082E-05 ), #216, 'distance_accuracy_value', 'NONE');
#255 = CARTESIAN_POINT ( 'NONE',  ( 0.000000000000000000, 0.000000000000000000, 7.199999999999984190 ) ) ;
#256 = DIRECTION ( 'NONE',  ( 1.000000000000000000, 0.000000000000000000, 0.000000000000000000 ) ) ;
#257 = VECTOR ( 'NONE', #125, 1000.000000000000000 ) ;
#258 = CYLINDRICAL_SURFACE ( 'NONE', #34, 11.00000000000000000 ) ;
#259 = CARTESIAN_POINT ( 'NONE',  ( 0.000000000000000000, 0.000000000000000000, 0.000000000000000000 ) ) ;
#260 = EDGE_CURVE ( 'NONE', #129, #178, #293, .T. ) ;
#261 = CC_DESIGN_PERSON_AND_ORGANIZATION_ASSIGNMENT ( #66, #17, ( #79 ) ) ;
#262 = DIRECTION ( 'NONE',  ( 1.000000000000000000, 0.000000000000000000, 0.000000000000000000 ) ) ;
#263 = CARTESIAN_POINT ( 'NONE',  ( -8.000000000000000000, 0.000000000000000000, 7.199999999999984190 ) ) ;
#264 = VERTEX_POINT ( 'NONE', #290 ) ;
#265 = AXIS2_PLACEMENT_3D ( 'NONE', #259, #171, #189 ) ;
#266 = CIRCLE ( 'NONE', #245, 0.1999999999999996503 ) ;
#267 = APPROVAL_ROLE ( '' ) ;
#268 = ORIENTED_EDGE ( 'NONE', *, *, #196, .T. ) ;
#269 = MANIFOLD_SOLID_BREP ( 'Zaoblit1', #88 ) ;
#270 = ORIENTED_EDGE ( 'NONE', *, *, #9, .T. ) ;
#271 = VERTEX_POINT ( 'NONE', #103 ) ;
#272 = ADVANCED_FACE ( 'NONE', ( #77 ), #19, .F. ) ;
#273 = ORIENTED_EDGE ( 'NONE', *, *, #141, .T. ) ;
#274 = PERSON_AND_ORGANIZATION_ROLE ( 'classification_officer' ) ;
#275 = DIRECTION ( 'NONE',  ( -1.000000000000000000, 0.000000000000000000, 0.000000000000000000 ) ) ;
#276 = CARTESIAN_POINT ( 'NONE',  ( -8.200000000000001066, 1.004210375300829674E-15, 7.199999999999984190 ) ) ;
#277 = CC_DESIGN_APPROVAL ( #219, ( #79 ) ) ;
#278 = CIRCLE ( 'NONE', #168, 8.000000000000000000 ) ;
#279 = FACE_OUTER_BOUND ( 'NONE', #33, .T. ) ;
#280 = FACE_OUTER_BOUND ( 'NONE', #32, .T. ) ;
#281 = APPROVAL_ROLE ( '' ) ;
#282 = CYLINDRICAL_SURFACE ( 'NONE', #12, 8.000000000000000000 ) ;
#283 = AXIS2_PLACEMENT_3D ( 'NONE', #5, #217, #262 ) ;
#284 = LOCAL_TIME ( 14, 20, 36.00000000000000000, #231 ) ;
#285 =( NAMED_UNIT ( * ) PLANE_ANGLE_UNIT ( ) SI_UNIT ( $, .RADIAN. ) );
#286 = AXIS2_PLACEMENT_3D ( 'NONE', #16, #304, #113 ) ;
#287 = LINE ( 'NONE', #169, #257 ) ;
#288 = LINE ( 'NONE', #241, #190 ) ;
#289 = DIRECTION ( 'NONE',  ( 0.000000000000000000, 0.000000000000000000, 1.000000000000000000 ) ) ;
#290 = CARTESIAN_POINT ( 'NONE',  ( -11.00000000000000000, 0.000000000000000000, 0.000000000000000000 ) ) ;
#291 = EDGE_LOOP ( 'NONE', ( #176, #35, #173, #86 ) ) ;
#292 = EDGE_LOOP ( 'NONE', ( #179, #203, #221, #53 ) ) ;
#293 = CIRCLE ( 'NONE', #283, 8.200000000000001066 ) ;
#294 = APPROVAL_PERSON_ORGANIZATION ( #236, #156, #281 ) ;
#295 = VERTEX_POINT ( 'NONE', #263 ) ;
#296 = DIRECTION ( 'NONE',  ( 0.000000000000000000, 0.000000000000000000, 1.000000000000000000 ) ) ;
#297 = EDGE_CURVE ( 'NONE', #248, #175, #288, .T. ) ;
#298 = ORIENTED_EDGE ( 'NONE', *, *, #228, .F. ) ;
#299 = AXIS2_PLACEMENT_3D ( 'NONE', #240, #74, #172 ) ;
#300 = VECTOR ( 'NONE', #25, 1000.000000000000000 ) ;
#301 = FACE_OUTER_BOUND ( 'NONE', #222, .T. ) ;
#302 = DIRECTION ( 'NONE',  ( 1.000000000000000000, 0.000000000000000000, 0.000000000000000000 ) ) ;
#303 = PERSON_AND_ORGANIZATION ( #202, #102 ) ;
#304 = DIRECTION ( 'NONE',  ( 0.000000000000000000, 0.000000000000000000, 1.000000000000000000 ) ) ;
#305 = AXIS2_PLACEMENT_3D ( 'NONE', #253, #117, #143 ) ;
#306 = CARTESIAN_POINT ( 'NONE',  ( -8.000000000000000000, 0.000000000000000000, 322.0000000000000000 ) ) ;
#307 = DIRECTION ( 'NONE',  ( -0.000000000000000000, -0.000000000000000000, -1.000000000000000000 ) ) ;
ENDSEC;
END-ISO-10303-21;
