ISO-10303-21;
HEADER;
FILE_DESCRIPTION (( 'STEP AP203' ),
    '1' );
FILE_NAME ('3e19.STEP',
    '2022-07-07T12:50:22',
    ( '' ),
    ( '' ),
    'SwSTEP 2.0',
    'SolidWorks 2019',
    '' );
FILE_SCHEMA (( 'CONFIG_CONTROL_DESIGN' ));
ENDSEC;

DATA;
#1 = ORIENTED_EDGE ( 'NONE', *, *, #35, .T. ) ;
#2 = EDGE_CURVE ( 'NONE', #84, #166, #292, .T. ) ;
#3 = ORIENTED_EDGE ( 'NONE', *, *, #263, .T. ) ;
#4 = PERSON_AND_ORGANIZATION ( #201, #93 ) ;
#5 = EDGE_LOOP ( 'NONE', ( #162, #259 ) ) ;
#6 = APPLICATION_CONTEXT ( 'configuration controlled 3d designs of mechanical parts and assemblies' ) ;
#7 = CYLINDRICAL_SURFACE ( 'NONE', #43, 4.000000000000000000 ) ;
#8 = CARTESIAN_POINT ( 'NONE',  ( 2.100000000000000089, 2.571758278209441957E-16, 103.0000000000000142 ) ) ;
#9 = FACE_OUTER_BOUND ( 'NONE', #145, .T. ) ;
#10 = PRODUCT_DEFINITION ( 'NEZNÁMÝ', '', #18, #205 ) ;
#11 = PERSON_AND_ORGANIZATION ( #201, #93 ) ;
#12 = FACE_OUTER_BOUND ( 'NONE', #277, .T. ) ;
#13 = ORIENTED_EDGE ( 'NONE', *, *, #2, .T. ) ;
#14 = PLANE ( 'NONE',  #185 ) ;
#15 = ORIENTED_EDGE ( 'NONE', *, *, #237, .T. ) ;
#16 = DIRECTION ( 'NONE',  ( 0.000000000000000000, 0.000000000000000000, 1.000000000000000000 ) ) ;
#17 = CALENDAR_DATE ( 2022, 7, 7 ) ;
#18 = PRODUCT_DEFINITION_FORMATION_WITH_SPECIFIED_SOURCE ( 'LIBOVOLNÝ', '', #214, .NOT_KNOWN. ) ;
#19 = CARTESIAN_POINT ( 'NONE',  ( -2.300000000000000266, 2.816687638038912549E-16, 3.199999999999994404 ) ) ;
#20 = ADVANCED_FACE ( 'NONE', ( #27 ), #244, .F. ) ;
#21 = UNCERTAINTY_MEASURE_WITH_UNIT (LENGTH_MEASURE( 1.000000000000000082E-05 ), #275, 'distance_accuracy_value', 'NONE');
#22 = CIRCLE ( 'NONE', #126, 2.100000000000000089 ) ;
#23 = ADVANCED_FACE ( 'NONE', ( #9 ), #266, .T. ) ;
#24 = CIRCLE ( 'NONE', #197, 4.000000000000000000 ) ;
#25 = CC_DESIGN_APPROVAL ( #52, ( #10 ) ) ;
#26 = CARTESIAN_POINT ( 'NONE',  ( 0.000000000000000000, 0.000000000000000000, 0.000000000000000000 ) ) ;
#27 = FACE_OUTER_BOUND ( 'NONE', #251, .T. ) ;
#28 = CARTESIAN_POINT ( 'NONE',  ( 2.100000000000000089, 2.571758278209441957E-16, 3.199999999999994404 ) ) ;
#29 = APPROVAL_DATE_TIME ( #69, #52 ) ;
#30 = FACE_OUTER_BOUND ( 'NONE', #66, .T. ) ;
#31 = VERTEX_POINT ( 'NONE', #8 ) ;
#32 = FACE_OUTER_BOUND ( 'NONE', #42, .T. ) ;
#33 = VERTEX_POINT ( 'NONE', #101 ) ;
#34 = ORIENTED_EDGE ( 'NONE', *, *, #290, .F. ) ;
#35 = EDGE_CURVE ( 'NONE', #31, #304, #281, .T. ) ;
#36 = APPROVAL_STATUS ( 'not_yet_approved' ) ;
#37 = CARTESIAN_POINT ( 'NONE',  ( 0.000000000000000000, 0.000000000000000000, 3.000000000000000000 ) ) ;
#38 = ADVANCED_FACE ( 'NONE', ( #30 ), #124, .F. ) ;
#39 = DIRECTION ( 'NONE',  ( -0.000000000000000000, -0.000000000000000000, -1.000000000000000000 ) ) ;
#40 = PERSON_AND_ORGANIZATION_ROLE ( 'classification_officer' ) ;
#41 = DIRECTION ( 'NONE',  ( -1.000000000000000000, 0.000000000000000000, 0.000000000000000000 ) ) ;
#42 = EDGE_LOOP ( 'NONE', ( #125, #1 ) ) ;
#43 = AXIS2_PLACEMENT_3D ( 'NONE', #240, #219, #215 ) ;
#44 = PRODUCT_RELATED_PRODUCT_CATEGORY ( 'detail', '', ( #214 ) ) ;
#45 = EDGE_CURVE ( 'NONE', #304, #56, #299, .T. ) ;
#46 = CIRCLE ( 'NONE', #61, 2.100000000000000089 ) ;
#47 = DIRECTION ( 'NONE',  ( -1.000000000000000000, 0.000000000000000000, 0.000000000000000000 ) ) ;
#48 = APPROVAL_STATUS ( 'not_yet_approved' ) ;
#49 = DIRECTION ( 'NONE',  ( 0.000000000000000000, 0.000000000000000000, 1.000000000000000000 ) ) ;
#50 = DIRECTION ( 'NONE',  ( 0.000000000000000000, 0.000000000000000000, 1.000000000000000000 ) ) ;
#51 = CC_DESIGN_APPROVAL ( #195, ( #18 ) ) ;
#52 = APPROVAL ( #160, 'NEURÈENÝ' ) ;
#53 = DIRECTION ( 'NONE',  ( 1.000000000000000000, 0.000000000000000000, 0.000000000000000000 ) ) ;
#54 = VERTEX_POINT ( 'NONE', #94 ) ;
#55 = DIRECTION ( 'NONE',  ( 0.000000000000000000, 0.000000000000000000, 1.000000000000000000 ) ) ;
#56 = VERTEX_POINT ( 'NONE', #190 ) ;
#57 = ORIENTED_EDGE ( 'NONE', *, *, #156, .T. ) ;
#58 = EDGE_CURVE ( 'NONE', #54, #33, #24, .T. ) ;
#59 = DIRECTION ( 'NONE',  ( 1.224646799147353207E-16, 1.000000000000000000, -0.000000000000000000 ) ) ;
#60 = ADVANCED_BREP_SHAPE_REPRESENTATION ( '3e19', ( #262, #119 ), #140 ) ;
#61 = AXIS2_PLACEMENT_3D ( 'NONE', #129, #254, #128 ) ;
#62 = ORIENTED_EDGE ( 'NONE', *, *, #192, .T. ) ;
#63 = FACE_OUTER_BOUND ( 'NONE', #5, .T. ) ;
#64 = DIRECTION ( 'NONE',  ( -0.000000000000000000, -0.000000000000000000, -1.000000000000000000 ) ) ;
#65 = PERSON_AND_ORGANIZATION ( #201, #93 ) ;
#66 = EDGE_LOOP ( 'NONE', ( #79, #297, #151, #155 ) ) ;
#67 = CARTESIAN_POINT ( 'NONE',  ( 0.000000000000000000, 0.000000000000000000, 3.000000000000000000 ) ) ;
#68 = LOCAL_TIME ( 14, 50, 22.00000000000000000, #95 ) ;
#69 = DATE_AND_TIME ( #245, #88 ) ;
#70 = CIRCLE ( 'NONE', #167, 0.2000000000000000944 ) ;
#71 = ORIENTED_EDGE ( 'NONE', *, *, #156, .F. ) ;
#72 = PERSON_AND_ORGANIZATION ( #201, #93 ) ;
#73 = CARTESIAN_POINT ( 'NONE',  ( 0.000000000000000000, 0.000000000000000000, 103.0000000000000142 ) ) ;
#74 = DIRECTION ( 'NONE',  ( 1.000000000000000000, 0.000000000000000000, 0.000000000000000000 ) ) ;
#75 = ORIENTED_EDGE ( 'NONE', *, *, #35, .F. ) ;
#76 = VERTEX_POINT ( 'NONE', #243 ) ;
#77 = VECTOR ( 'NONE', #64, 1000.000000000000000 ) ;
#78 = PERSON_AND_ORGANIZATION ( #201, #93 ) ;
#79 = ORIENTED_EDGE ( 'NONE', *, *, #237, .F. ) ;
#80 = FACE_OUTER_BOUND ( 'NONE', #222, .T. ) ;
#81 = LINE ( 'NONE', #306, #246 ) ;
#82 = PERSON_AND_ORGANIZATION ( #201, #93 ) ;
#83 = CARTESIAN_POINT ( 'NONE',  ( 0.000000000000000000, 0.000000000000000000, 103.0000000000000142 ) ) ;
#84 = VERTEX_POINT ( 'NONE', #28 ) ;
#85 = FACE_OUTER_BOUND ( 'NONE', #174, .T. ) ;
#86 = EDGE_CURVE ( 'NONE', #143, #76, #238, .T. ) ;
#87 = AXIS2_PLACEMENT_3D ( 'NONE', #120, #91, #136 ) ;
#88 = LOCAL_TIME ( 14, 50, 22.00000000000000000, #289 ) ;
#89 = ADVANCED_FACE ( 'NONE', ( #229, #63 ), #14, .T. ) ;
#90 = APPLICATION_PROTOCOL_DEFINITION ( 'international standard', 'config_control_design', 1994, #159 ) ;
#91 = DIRECTION ( 'NONE',  ( 0.000000000000000000, -1.000000000000000000, 0.000000000000000000 ) ) ;
#92 = AXIS2_PLACEMENT_3D ( 'NONE', #122, #164, #199 ) ;
#93 = ORGANIZATION ( 'NEURÈENÝ', 'NEURÈENÝ', '' ) ;
#94 = CARTESIAN_POINT ( 'NONE',  ( 4.000000000000000000, 4.898587196589412829E-16, 3.000000000000000000 ) ) ;
#95 = COORDINATED_UNIVERSAL_TIME_OFFSET ( 1, 0, .AHEAD. ) ;
#96 = ADVANCED_FACE ( 'NONE', ( #80 ), #303, .T. ) ;
#97 = PLANE ( 'NONE',  #183 ) ;
#98 = ORIENTED_EDGE ( 'NONE', *, *, #220, .F. ) ;
#99 = PERSON_AND_ORGANIZATION_ROLE ( 'creator' ) ;
#100 = AXIS2_PLACEMENT_3D ( 'NONE', #271, #50, #141 ) ;
#101 = CARTESIAN_POINT ( 'NONE',  ( -4.000000000000000000, 0.000000000000000000, 3.000000000000000000 ) ) ;
#102 = LOCAL_TIME ( 14, 50, 22.00000000000000000, #180 ) ;
#103 = DATE_TIME_ROLE ( 'classification_date' ) ;
#104 = ORIENTED_EDGE ( 'NONE', *, *, #86, .T. ) ;
#105 = PLANE ( 'NONE',  #177 ) ;
#106 = CARTESIAN_POINT ( 'NONE',  ( 0.000000000000000000, 0.000000000000000000, 0.000000000000000000 ) ) ;
#107 = CARTESIAN_POINT ( 'NONE',  ( 2.100000000000000089, 2.571758278209441957E-16, 103.0000000000000142 ) ) ;
#108 = AXIS2_PLACEMENT_3D ( 'NONE', #301, #241, #194 ) ;
#109 = DATE_AND_TIME ( #17, #102 ) ;
#110 = ORIENTED_EDGE ( 'NONE', *, *, #45, .T. ) ;
#111 = CC_DESIGN_PERSON_AND_ORGANIZATION_ASSIGNMENT ( #72, #267, ( #214 ) ) ;
#112 = DIRECTION ( 'NONE',  ( -0.000000000000000000, -0.000000000000000000, -1.000000000000000000 ) ) ;
#113 = AXIS2_PLACEMENT_3D ( 'NONE', #302, #258, #182 ) ;
#114 = AXIS2_PLACEMENT_3D ( 'NONE', #73, #247, #47 ) ;
#115 = VECTOR ( 'NONE', #142, 1000.000000000000000 ) ;
#116 = PRODUCT_DEFINITION_SHAPE ( 'NONE', 'NONE',  #10 ) ;
#117 = DIRECTION ( 'NONE',  ( -0.000000000000000000, -0.000000000000000000, -1.000000000000000000 ) ) ;
#118 = DIRECTION ( 'NONE',  ( 0.000000000000000000, 0.000000000000000000, 1.000000000000000000 ) ) ;
#119 = AXIS2_PLACEMENT_3D ( 'NONE', #26, #118, #250 ) ;
#120 = CARTESIAN_POINT ( 'NONE',  ( 2.300000000000000266, 0.000000000000000000, 3.199999999999994404 ) ) ;
#121 = LINE ( 'NONE', #193, #115 ) ;
#122 = CARTESIAN_POINT ( 'NONE',  ( 0.000000000000000000, 0.000000000000000000, 103.0000000000000142 ) ) ;
#123 = ORIENTED_EDGE ( 'NONE', *, *, #150, .F. ) ;
#124 = TOROIDAL_SURFACE ( 'NONE', #108, 2.300000000000000266, 0.2000000000000000111 ) ;
#125 = ORIENTED_EDGE ( 'NONE', *, *, #269, .T. ) ;
#126 = AXIS2_PLACEMENT_3D ( 'NONE', #209, #179, #283 ) ;
#127 = VERTEX_POINT ( 'NONE', #148 ) ;
#128 = DIRECTION ( 'NONE',  ( 1.000000000000000000, 0.000000000000000000, 0.000000000000000000 ) ) ;
#129 = CARTESIAN_POINT ( 'NONE',  ( 0.000000000000000000, 0.000000000000000000, 3.199999999999994404 ) ) ;
#130 = DIRECTION ( 'NONE',  ( -1.000000000000000000, 1.224646799147353207E-16, 0.000000000000000000 ) ) ;
#131 = EDGE_CURVE ( 'NONE', #56, #127, #70, .T. ) ;
#132 = CC_DESIGN_PERSON_AND_ORGANIZATION_ASSIGNMENT ( #65, #40, ( #239 ) ) ;
#133 = CC_DESIGN_DATE_AND_TIME_ASSIGNMENT ( #109, #103, ( #239 ) ) ;
#134 = LOCAL_TIME ( 14, 50, 22.00000000000000000, #265 ) ;
#135 = MECHANICAL_CONTEXT ( 'NONE', #6, 'mechanical' ) ;
#136 = DIRECTION ( 'NONE',  ( 0.000000000000000000, 0.000000000000000000, -1.000000000000000000 ) ) ;
#137 = CALENDAR_DATE ( 2022, 7, 7 ) ;
#138 = DIRECTION ( 'NONE',  ( 1.000000000000000000, 0.000000000000000000, 0.000000000000000000 ) ) ;
#139 = DIRECTION ( 'NONE',  ( -0.000000000000000000, -0.000000000000000000, -1.000000000000000000 ) ) ;
#140 =( GEOMETRIC_REPRESENTATION_CONTEXT ( 3 ) GLOBAL_UNCERTAINTY_ASSIGNED_CONTEXT ( ( #21 ) ) GLOBAL_UNIT_ASSIGNED_CONTEXT ( ( #275, #248, #223 ) ) REPRESENTATION_CONTEXT ( 'NONE', 'WORKASPACE' ) );
#141 = DIRECTION ( 'NONE',  ( 1.000000000000000000, 0.000000000000000000, 0.000000000000000000 ) ) ;
#142 = DIRECTION ( 'NONE',  ( -0.000000000000000000, -0.000000000000000000, -1.000000000000000000 ) ) ;
#143 = VERTEX_POINT ( 'NONE', #176 ) ;
#144 = ORIENTED_EDGE ( 'NONE', *, *, #269, .F. ) ;
#145 = EDGE_LOOP ( 'NONE', ( #123, #144, #110, #15 ) ) ;
#146 = EDGE_LOOP ( 'NONE', ( #3, #57 ) ) ;
#147 = AXIS2_PLACEMENT_3D ( 'NONE', #295, #291, #249 ) ;
#148 = CARTESIAN_POINT ( 'NONE',  ( -2.300000000000000266, 2.816687638038912549E-16, 2.999999999999997335 ) ) ;
#149 = CIRCLE ( 'NONE', #113, 4.000000000000000000 ) ;
#150 = EDGE_CURVE ( 'NONE', #31, #84, #157, .T. ) ;
#151 = ORIENTED_EDGE ( 'NONE', *, *, #263, .F. ) ;
#152 = CYLINDRICAL_SURFACE ( 'NONE', #235, 2.100000000000000089 ) ;
#153 = EDGE_CURVE ( 'NONE', #84, #56, #46, .T. ) ;
#154 = FACE_OUTER_BOUND ( 'NONE', #252, .T. ) ;
#155 = ORIENTED_EDGE ( 'NONE', *, *, #2, .F. ) ;
#156 = EDGE_CURVE ( 'NONE', #127, #166, #264, .T. ) ;
#157 = LINE ( 'NONE', #107, #77 ) ;
#158 = VECTOR ( 'NONE', #117, 1000.000000000000000 ) ;
#159 = APPLICATION_CONTEXT ( 'configuration controlled 3d designs of mechanical parts and assemblies' ) ;
#160 = APPROVAL_STATUS ( 'not_yet_approved' ) ;
#161 = LOCAL_TIME ( 14, 50, 22.00000000000000000, #230 ) ;
#162 = ORIENTED_EDGE ( 'NONE', *, *, #220, .T. ) ;
#163 = DIRECTION ( 'NONE',  ( 1.000000000000000000, 0.000000000000000000, -0.000000000000000000 ) ) ;
#164 = DIRECTION ( 'NONE',  ( 0.000000000000000000, 0.000000000000000000, 1.000000000000000000 ) ) ;
#165 = DIRECTION ( 'NONE',  ( 0.000000000000000000, 0.000000000000000000, 1.000000000000000000 ) ) ;
#166 = VERTEX_POINT ( 'NONE', #282 ) ;
#167 = AXIS2_PLACEMENT_3D ( 'NONE', #19, #59, #130 ) ;
#168 = ORIENTED_EDGE ( 'NONE', *, *, #45, .F. ) ;
#169 = CARTESIAN_POINT ( 'NONE',  ( 0.000000000000000000, 0.000000000000000000, 103.0000000000000142 ) ) ;
#170 = ORIENTED_EDGE ( 'NONE', *, *, #290, .T. ) ;
#171 = PERSON_AND_ORGANIZATION ( #201, #93 ) ;
#172 = CARTESIAN_POINT ( 'NONE',  ( 0.000000000000000000, 0.000000000000000000, 3.000000000000000000 ) ) ;
#173 = EDGE_CURVE ( 'NONE', #33, #143, #81, .T. ) ;
#174 = EDGE_LOOP ( 'NONE', ( #274, #204 ) ) ;
#175 = ADVANCED_FACE ( 'NONE', ( #12 ), #152, .T. ) ;
#176 = CARTESIAN_POINT ( 'NONE',  ( -4.000000000000000000, 0.000000000000000000, 0.000000000000000000 ) ) ;
#177 = AXIS2_PLACEMENT_3D ( 'NONE', #106, #256, #202 ) ;
#178 = DATE_AND_TIME ( #211, #161 ) ;
#179 = DIRECTION ( 'NONE',  ( 0.000000000000000000, 0.000000000000000000, 1.000000000000000000 ) ) ;
#180 = COORDINATED_UNIVERSAL_TIME_OFFSET ( 1, 0, .AHEAD. ) ;
#181 = ADVANCED_FACE ( 'NONE', ( #85 ), #105, .F. ) ;
#182 = DIRECTION ( 'NONE',  ( 1.000000000000000000, 0.000000000000000000, 0.000000000000000000 ) ) ;
#183 = AXIS2_PLACEMENT_3D ( 'NONE', #169, #55, #163 ) ;
#184 = ORIENTED_EDGE ( 'NONE', *, *, #150, .T. ) ;
#185 = AXIS2_PLACEMENT_3D ( 'NONE', #286, #16, #212 ) ;
#186 = CC_DESIGN_PERSON_AND_ORGANIZATION_ASSIGNMENT ( #171, #203, ( #18 ) ) ;
#187 = PERSON_AND_ORGANIZATION ( #201, #93 ) ;
#188 = ORIENTED_EDGE ( 'NONE', *, *, #173, .T. ) ;
#189 = CIRCLE ( 'NONE', #213, 2.300000000000000266 ) ;
#190 = CARTESIAN_POINT ( 'NONE',  ( -2.100000000000000089, 0.000000000000000000, 3.199999999999994404 ) ) ;
#191 = CALENDAR_DATE ( 2022, 7, 7 ) ;
#192 = EDGE_CURVE ( 'NONE', #76, #143, #149, .T. ) ;
#193 = CARTESIAN_POINT ( 'NONE',  ( 4.000000000000000000, 4.898587196589412829E-16, 3.000000000000000000 ) ) ;
#194 = DIRECTION ( 'NONE',  ( 1.000000000000000000, 0.000000000000000000, 0.000000000000000000 ) ) ;
#195 = APPROVAL ( #48, 'NEURÈENÝ' ) ;
#196 = DATE_AND_TIME ( #137, #134 ) ;
#197 = AXIS2_PLACEMENT_3D ( 'NONE', #268, #49, #138 ) ;
#198 = APPROVAL_PERSON_ORGANIZATION ( #78, #195, #242 ) ;
#199 = DIRECTION ( 'NONE',  ( 1.000000000000000000, 0.000000000000000000, 0.000000000000000000 ) ) ;
#200 = APPROVAL_DATE_TIME ( #178, #236 ) ;
#201 = PERSON ( 'NEURÈENÝ', 'NEURÈENÝ', 'NEURÈENÝ', ('NEURÈENÝ'), ('NEURÈENÝ'), ('NEURÈENÝ') ) ;
#202 = DIRECTION ( 'NONE',  ( 1.000000000000000000, 0.000000000000000000, -0.000000000000000000 ) ) ;
#203 = PERSON_AND_ORGANIZATION_ROLE ( 'design_supplier' ) ;
#204 = ORIENTED_EDGE ( 'NONE', *, *, #192, .F. ) ;
#205 = DESIGN_CONTEXT ( 'detailed design', #159, 'design' ) ;
#206 = DIRECTION ( 'NONE',  ( 0.000000000000000000, 0.000000000000000000, 1.000000000000000000 ) ) ;
#207 = APPROVAL_ROLE ( '' ) ;
#208 = ORIENTED_EDGE ( 'NONE', *, *, #173, .F. ) ;
#209 = CARTESIAN_POINT ( 'NONE',  ( 0.000000000000000000, 0.000000000000000000, 3.199999999999994404 ) ) ;
#210 = AXIS2_PLACEMENT_3D ( 'NONE', #37, #305, #226 ) ;
#211 = CALENDAR_DATE ( 2022, 7, 7 ) ;
#212 = DIRECTION ( 'NONE',  ( 1.000000000000000000, 0.000000000000000000, -0.000000000000000000 ) ) ;
#213 = AXIS2_PLACEMENT_3D ( 'NONE', #296, #139, #74 ) ;
#214 = PRODUCT ( '3e19', '3e19', '', ( #135 ) ) ;
#215 = DIRECTION ( 'NONE',  ( -1.000000000000000000, 0.000000000000000000, 0.000000000000000000 ) ) ;
#216 = ORIENTED_EDGE ( 'NONE', *, *, #153, .F. ) ;
#217 = AXIS2_PLACEMENT_3D ( 'NONE', #172, #206, #279 ) ;
#218 = CARTESIAN_POINT ( 'NONE',  ( -2.100000000000000089, 0.000000000000000000, 103.0000000000000142 ) ) ;
#219 = DIRECTION ( 'NONE',  ( -0.000000000000000000, -0.000000000000000000, -1.000000000000000000 ) ) ;
#220 = EDGE_CURVE ( 'NONE', #33, #54, #293, .T. ) ;
#221 = CC_DESIGN_SECURITY_CLASSIFICATION ( #239, ( #18 ) ) ;
#222 = EDGE_LOOP ( 'NONE', ( #278, #170, #62, #208 ) ) ;
#223 =( NAMED_UNIT ( * ) SI_UNIT ( $, .STERADIAN. ) SOLID_ANGLE_UNIT ( ) );
#224 = ORIENTED_EDGE ( 'NONE', *, *, #131, .F. ) ;
#225 = APPLICATION_PROTOCOL_DEFINITION ( 'international standard', 'config_control_design', 1994, #6 ) ;
#226 = DIRECTION ( 'NONE',  ( 1.000000000000000000, 0.000000000000000000, 0.000000000000000000 ) ) ;
#227 = DIRECTION ( 'NONE',  ( -1.000000000000000000, 0.000000000000000000, 0.000000000000000000 ) ) ;
#228 = PERSON_AND_ORGANIZATION_ROLE ( 'creator' ) ;
#229 = FACE_BOUND ( 'NONE', #146, .T. ) ;
#230 = COORDINATED_UNIVERSAL_TIME_OFFSET ( 1, 0, .AHEAD. ) ;
#231 = DIRECTION ( 'NONE',  ( -0.000000000000000000, -0.000000000000000000, -1.000000000000000000 ) ) ;
#232 = CC_DESIGN_DATE_AND_TIME_ASSIGNMENT ( #196, #300, ( #10 ) ) ;
#233 = CC_DESIGN_APPROVAL ( #236, ( #239 ) ) ;
#234 = CLOSED_SHELL ( 'NONE', ( #38, #175, #96, #261, #89, #181, #23, #273, #20 ) ) ;
#235 = AXIS2_PLACEMENT_3D ( 'NONE', #83, #112, #227 ) ;
#236 = APPROVAL ( #36, 'NEURÈENÝ' ) ;
#237 = EDGE_CURVE ( 'NONE', #56, #84, #22, .T. ) ;
#238 = CIRCLE ( 'NONE', #100, 4.000000000000000000 ) ;
#239 = SECURITY_CLASSIFICATION ( '', '', #280 ) ;
#240 = CARTESIAN_POINT ( 'NONE',  ( 0.000000000000000000, 0.000000000000000000, 3.000000000000000000 ) ) ;
#241 = DIRECTION ( 'NONE',  ( 0.000000000000000000, 0.000000000000000000, 1.000000000000000000 ) ) ;
#242 = APPROVAL_ROLE ( '' ) ;
#243 = CARTESIAN_POINT ( 'NONE',  ( 4.000000000000000000, 4.898587196589412829E-16, 0.000000000000000000 ) ) ;
#244 = TOROIDAL_SURFACE ( 'NONE', #147, 2.300000000000000266, 0.2000000000000000111 ) ;
#245 = CALENDAR_DATE ( 2022, 7, 7 ) ;
#246 = VECTOR ( 'NONE', #231, 1000.000000000000000 ) ;
#247 = DIRECTION ( 'NONE',  ( -0.000000000000000000, -0.000000000000000000, -1.000000000000000000 ) ) ;
#248 =( NAMED_UNIT ( * ) PLANE_ANGLE_UNIT ( ) SI_UNIT ( $, .RADIAN. ) );
#249 = DIRECTION ( 'NONE',  ( 1.000000000000000000, 0.000000000000000000, 0.000000000000000000 ) ) ;
#250 = DIRECTION ( 'NONE',  ( 1.000000000000000000, 0.000000000000000000, 0.000000000000000000 ) ) ;
#251 = EDGE_LOOP ( 'NONE', ( #224, #216, #13, #71 ) ) ;
#252 = EDGE_LOOP ( 'NONE', ( #34, #98, #188, #104 ) ) ;
#253 = AXIS2_PLACEMENT_3D ( 'NONE', #67, #39, #41 ) ;
#254 = DIRECTION ( 'NONE',  ( 0.000000000000000000, 0.000000000000000000, 1.000000000000000000 ) ) ;
#255 = DATE_AND_TIME ( #191, #68 ) ;
#256 = DIRECTION ( 'NONE',  ( 0.000000000000000000, 0.000000000000000000, 1.000000000000000000 ) ) ;
#257 = SHAPE_DEFINITION_REPRESENTATION ( #116, #60 ) ;
#258 = DIRECTION ( 'NONE',  ( 0.000000000000000000, 0.000000000000000000, 1.000000000000000000 ) ) ;
#259 = ORIENTED_EDGE ( 'NONE', *, *, #58, .T. ) ;
#260 = AXIS2_PLACEMENT_3D ( 'NONE', #272, #165, #53 ) ;
#261 = ADVANCED_FACE ( 'NONE', ( #154 ), #7, .T. ) ;
#262 = MANIFOLD_SOLID_BREP ( 'Zaoblit1', #234 ) ;
#263 = EDGE_CURVE ( 'NONE', #166, #127, #189, .T. ) ;
#264 = CIRCLE ( 'NONE', #210, 2.300000000000000266 ) ;
#265 = COORDINATED_UNIVERSAL_TIME_OFFSET ( 1, 0, .AHEAD. ) ;
#266 = CYLINDRICAL_SURFACE ( 'NONE', #114, 2.100000000000000089 ) ;
#267 = PERSON_AND_ORGANIZATION_ROLE ( 'design_owner' ) ;
#268 = CARTESIAN_POINT ( 'NONE',  ( 0.000000000000000000, 0.000000000000000000, 3.000000000000000000 ) ) ;
#269 = EDGE_CURVE ( 'NONE', #304, #31, #287, .T. ) ;
#270 = APPROVAL_ROLE ( '' ) ;
#271 = CARTESIAN_POINT ( 'NONE',  ( 0.000000000000000000, 0.000000000000000000, 0.000000000000000000 ) ) ;
#272 = CARTESIAN_POINT ( 'NONE',  ( 0.000000000000000000, 0.000000000000000000, 103.0000000000000142 ) ) ;
#273 = ADVANCED_FACE ( 'NONE', ( #32 ), #97, .T. ) ;
#274 = ORIENTED_EDGE ( 'NONE', *, *, #86, .F. ) ;
#275 =( LENGTH_UNIT ( ) NAMED_UNIT ( * ) SI_UNIT ( .MILLI., .METRE. ) );
#276 = CC_DESIGN_PERSON_AND_ORGANIZATION_ASSIGNMENT ( #4, #99, ( #10 ) ) ;
#277 = EDGE_LOOP ( 'NONE', ( #75, #184, #285, #168 ) ) ;
#278 = ORIENTED_EDGE ( 'NONE', *, *, #58, .F. ) ;
#279 = DIRECTION ( 'NONE',  ( 1.000000000000000000, 0.000000000000000000, 0.000000000000000000 ) ) ;
#280 = SECURITY_CLASSIFICATION_LEVEL ( 'unclassified' ) ;
#281 = CIRCLE ( 'NONE', #92, 2.100000000000000089 ) ;
#282 = CARTESIAN_POINT ( 'NONE',  ( 2.300000000000000266, 0.000000000000000000, 2.999999999999997335 ) ) ;
#283 = DIRECTION ( 'NONE',  ( 1.000000000000000000, 0.000000000000000000, 0.000000000000000000 ) ) ;
#284 = APPROVAL_DATE_TIME ( #255, #195 ) ;
#285 = ORIENTED_EDGE ( 'NONE', *, *, #153, .T. ) ;
#286 = CARTESIAN_POINT ( 'NONE',  ( 0.000000000000000000, 0.000000000000000000, 3.000000000000000000 ) ) ;
#287 = CIRCLE ( 'NONE', #260, 2.100000000000000089 ) ;
#288 = APPROVAL_PERSON_ORGANIZATION ( #187, #52, #270 ) ;
#289 = COORDINATED_UNIVERSAL_TIME_OFFSET ( 1, 0, .AHEAD. ) ;
#290 = EDGE_CURVE ( 'NONE', #54, #76, #121, .T. ) ;
#291 = DIRECTION ( 'NONE',  ( 0.000000000000000000, 0.000000000000000000, 1.000000000000000000 ) ) ;
#292 = CIRCLE ( 'NONE', #87, 0.2000000000000000944 ) ;
#293 = CIRCLE ( 'NONE', #217, 4.000000000000000000 ) ;
#294 = CC_DESIGN_PERSON_AND_ORGANIZATION_ASSIGNMENT ( #11, #228, ( #18 ) ) ;
#295 = CARTESIAN_POINT ( 'NONE',  ( 0.000000000000000000, 0.000000000000000000, 3.199999999999994404 ) ) ;
#296 = CARTESIAN_POINT ( 'NONE',  ( 0.000000000000000000, 0.000000000000000000, 3.000000000000000000 ) ) ;
#297 = ORIENTED_EDGE ( 'NONE', *, *, #131, .T. ) ;
#298 = CARTESIAN_POINT ( 'NONE',  ( -2.100000000000000089, 0.000000000000000000, 103.0000000000000142 ) ) ;
#299 = LINE ( 'NONE', #218, #158 ) ;
#300 = DATE_TIME_ROLE ( 'creation_date' ) ;
#301 = CARTESIAN_POINT ( 'NONE',  ( 0.000000000000000000, 0.000000000000000000, 3.199999999999994404 ) ) ;
#302 = CARTESIAN_POINT ( 'NONE',  ( 0.000000000000000000, 0.000000000000000000, 0.000000000000000000 ) ) ;
#303 = CYLINDRICAL_SURFACE ( 'NONE', #253, 4.000000000000000000 ) ;
#304 = VERTEX_POINT ( 'NONE', #298 ) ;
#305 = DIRECTION ( 'NONE',  ( -0.000000000000000000, -0.000000000000000000, -1.000000000000000000 ) ) ;
#306 = CARTESIAN_POINT ( 'NONE',  ( -4.000000000000000000, 0.000000000000000000, 3.000000000000000000 ) ) ;
#307 = APPROVAL_PERSON_ORGANIZATION ( #82, #236, #207 ) ;
ENDSEC;
END-ISO-10303-21;
