ISO-10303-21;
HEADER;
FILE_DESCRIPTION (( 'STEP AP203' ),
    '1' );
FILE_NAME ('7882.STEP',
    '2022-07-07T12:49:42',
    ( '' ),
    ( '' ),
    'SwSTEP 2.0',
    'SolidWorks 2019',
    '' );
FILE_SCHEMA (( 'CONFIG_CONTROL_DESIGN' ));
ENDSEC;

DATA;
#1 = ORIENTED_EDGE ( 'NONE', *, *, #139, .T. ) ;
#2 = PERSON ( 'NEURÈENÝ', 'NEURÈENÝ', 'NEURÈENÝ', ('NEURÈENÝ'), ('NEURÈENÝ'), ('NEURÈENÝ') ) ;
#3 = LINE ( 'NONE', #246, #61 ) ;
#4 = FACE_OUTER_BOUND ( 'NONE', #37, .T. ) ;
#5 = CARTESIAN_POINT ( 'NONE',  ( 4.000000000000000000, 4.898587196589412829E-16, 3.000000000000000000 ) ) ;
#6 = AXIS2_PLACEMENT_3D ( 'NONE', #48, #97, #55 ) ;
#7 = DIRECTION ( 'NONE',  ( 1.000000000000000000, 0.000000000000000000, -0.000000000000000000 ) ) ;
#8 = CARTESIAN_POINT ( 'NONE',  ( 0.000000000000000000, 0.000000000000000000, 3.200000000000008171 ) ) ;
#9 = LINE ( 'NONE', #30, #289 ) ;
#10 = EDGE_CURVE ( 'NONE', #141, #40, #279, .T. ) ;
#11 = DIRECTION ( 'NONE',  ( 0.000000000000000000, 0.000000000000000000, 1.000000000000000000 ) ) ;
#12 = AXIS2_PLACEMENT_3D ( 'NONE', #301, #187, #160 ) ;
#13 = ORIENTED_EDGE ( 'NONE', *, *, #91, .T. ) ;
#14 = APPROVAL_DATE_TIME ( #63, #268 ) ;
#15 = DIRECTION ( 'NONE',  ( 0.000000000000000000, 0.000000000000000000, 1.000000000000000000 ) ) ;
#16 = ORGANIZATION ( 'NEURÈENÝ', 'NEURÈENÝ', '' ) ;
#17 = PERSON_AND_ORGANIZATION ( #2, #16 ) ;
#18 = CALENDAR_DATE ( 2022, 7, 7 ) ;
#19 = CC_DESIGN_PERSON_AND_ORGANIZATION_ASSIGNMENT ( #168, #140, ( #94 ) ) ;
#20 = EDGE_LOOP ( 'NONE', ( #293, #242, #153, #207 ) ) ;
#21 = PERSON_AND_ORGANIZATION ( #2, #16 ) ;
#22 = AXIS2_PLACEMENT_3D ( 'NONE', #127, #11, #299 ) ;
#23 = ORIENTED_EDGE ( 'NONE', *, *, #139, .F. ) ;
#24 = ORIENTED_EDGE ( 'NONE', *, *, #247, .T. ) ;
#25 = CARTESIAN_POINT ( 'NONE',  ( 0.000000000000000000, 0.000000000000000000, 0.000000000000000000 ) ) ;
#26 = CARTESIAN_POINT ( 'NONE',  ( 0.000000000000000000, 0.000000000000000000, 3.000000000000000000 ) ) ;
#27 = AXIS2_PLACEMENT_3D ( 'NONE', #8, #213, #239 ) ;
#28 = DIRECTION ( 'NONE',  ( -0.000000000000000000, -0.000000000000000000, -1.000000000000000000 ) ) ;
#29 = DIRECTION ( 'NONE',  ( -0.000000000000000000, -0.000000000000000000, -1.000000000000000000 ) ) ;
#30 = CARTESIAN_POINT ( 'NONE',  ( -2.100000000000000089, 0.000000000000000000, 253.0000000000000000 ) ) ;
#31 = AXIS2_PLACEMENT_3D ( 'NONE', #227, #76, #273 ) ;
#32 = APPLICATION_PROTOCOL_DEFINITION ( 'international standard', 'config_control_design', 1994, #143 ) ;
#33 = DIRECTION ( 'NONE',  ( 0.000000000000000000, 0.000000000000000000, 1.000000000000000000 ) ) ;
#34 = ORIENTED_EDGE ( 'NONE', *, *, #96, .F. ) ;
#35 = PERSON_AND_ORGANIZATION ( #2, #16 ) ;
#36 = DIRECTION ( 'NONE',  ( 1.000000000000000000, 0.000000000000000000, 0.000000000000000000 ) ) ;
#37 = EDGE_LOOP ( 'NONE', ( #90, #240, #24, #173 ) ) ;
#38 = DESIGN_CONTEXT ( 'detailed design', #164, 'design' ) ;
#39 = CARTESIAN_POINT ( 'NONE',  ( 0.000000000000000000, 0.000000000000000000, 0.000000000000000000 ) ) ;
#40 = VERTEX_POINT ( 'NONE', #217 ) ;
#41 = ADVANCED_FACE ( 'NONE', ( #118 ), #196, .T. ) ;
#42 = AXIS2_PLACEMENT_3D ( 'NONE', #267, #304, #170 ) ;
#43 = SHAPE_DEFINITION_REPRESENTATION ( #71, #130 ) ;
#44 = SECURITY_CLASSIFICATION_LEVEL ( 'unclassified' ) ;
#45 = CARTESIAN_POINT ( 'NONE',  ( 0.000000000000000000, 0.000000000000000000, 0.000000000000000000 ) ) ;
#46 = APPROVAL_DATE_TIME ( #261, #220 ) ;
#47 = CARTESIAN_POINT ( 'NONE',  ( -2.100000000000000089, 0.000000000000000000, 253.0000000000000000 ) ) ;
#48 = CARTESIAN_POINT ( 'NONE',  ( 0.000000000000000000, 0.000000000000000000, 253.0000000000000000 ) ) ;
#49 = DIRECTION ( 'NONE',  ( 1.000000000000000000, 0.000000000000000000, 0.000000000000000000 ) ) ;
#50 = CARTESIAN_POINT ( 'NONE',  ( 0.000000000000000000, 0.000000000000000000, 3.000000000000000000 ) ) ;
#51 = AXIS2_PLACEMENT_3D ( 'NONE', #45, #92, #146 ) ;
#52 = DIRECTION ( 'NONE',  ( 1.000000000000000000, 0.000000000000000000, 0.000000000000000000 ) ) ;
#53 = CC_DESIGN_APPROVAL ( #220, ( #94 ) ) ;
#54 = CARTESIAN_POINT ( 'NONE',  ( -4.000000000000000000, 0.000000000000000000, 3.000000000000000000 ) ) ;
#55 = DIRECTION ( 'NONE',  ( 1.000000000000000000, 0.000000000000000000, -0.000000000000000000 ) ) ;
#56 = CARTESIAN_POINT ( 'NONE',  ( 4.000000000000000000, 4.898587196589412829E-16, 0.000000000000000000 ) ) ;
#57 = APPROVAL_ROLE ( '' ) ;
#58 =( NAMED_UNIT ( * ) SI_UNIT ( $, .STERADIAN. ) SOLID_ANGLE_UNIT ( ) );
#59 = VERTEX_POINT ( 'NONE', #67 ) ;
#60 = APPROVAL_STATUS ( 'not_yet_approved' ) ;
#61 = VECTOR ( 'NONE', #225, 1000.000000000000000 ) ;
#62 = CC_DESIGN_APPROVAL ( #268, ( #131 ) ) ;
#63 = DATE_AND_TIME ( #83, #112 ) ;
#64 = APPROVAL_ROLE ( '' ) ;
#65 = TOROIDAL_SURFACE ( 'NONE', #27, 2.300000000000000266, 0.2000000000000000111 ) ;
#66 = DATE_TIME_ROLE ( 'classification_date' ) ;
#67 = CARTESIAN_POINT ( 'NONE',  ( -2.100000000000000089, 0.000000000000000000, 3.200000000000008171 ) ) ;
#68 = CARTESIAN_POINT ( 'NONE',  ( 4.000000000000000000, 4.898587196589412829E-16, 3.000000000000000000 ) ) ;
#69 = VERTEX_POINT ( 'NONE', #175 ) ;
#70 = VERTEX_POINT ( 'NONE', #119 ) ;
#71 = PRODUCT_DEFINITION_SHAPE ( 'NONE', 'NONE',  #131 ) ;
#72 = CC_DESIGN_DATE_AND_TIME_ASSIGNMENT ( #254, #297, ( #131 ) ) ;
#73 = DIRECTION ( 'NONE',  ( -0.000000000000000000, -0.000000000000000000, -1.000000000000000000 ) ) ;
#74 = CARTESIAN_POINT ( 'NONE',  ( 0.000000000000000000, 0.000000000000000000, 3.000000000000000000 ) ) ;
#75 = CARTESIAN_POINT ( 'NONE',  ( 0.000000000000000000, 0.000000000000000000, 3.000000000000000000 ) ) ;
#76 = DIRECTION ( 'NONE',  ( 1.224646799147353207E-16, 1.000000000000000000, -0.000000000000000000 ) ) ;
#77 = EDGE_CURVE ( 'NONE', #40, #141, #105, .T. ) ;
#78 = DIRECTION ( 'NONE',  ( 0.000000000000000000, 0.000000000000000000, 1.000000000000000000 ) ) ;
#79 = CIRCLE ( 'NONE', #51, 4.000000000000000000 ) ;
#80 = CC_DESIGN_SECURITY_CLASSIFICATION ( #243, ( #94 ) ) ;
#81 = PERSON_AND_ORGANIZATION ( #2, #16 ) ;
#82 = ORIENTED_EDGE ( 'NONE', *, *, #214, .T. ) ;
#83 = CALENDAR_DATE ( 2022, 7, 7 ) ;
#84 = CC_DESIGN_PERSON_AND_ORGANIZATION_ASSIGNMENT ( #294, #280, ( #145 ) ) ;
#85 = COORDINATED_UNIVERSAL_TIME_OFFSET ( 1, 0, .AHEAD. ) ;
#86 = CIRCLE ( 'NONE', #300, 2.300000000000000266 ) ;
#87 = FACE_OUTER_BOUND ( 'NONE', #20, .T. ) ;
#88 = PERSON_AND_ORGANIZATION_ROLE ( 'creator' ) ;
#89 =( GEOMETRIC_REPRESENTATION_CONTEXT ( 3 ) GLOBAL_UNCERTAINTY_ASSIGNED_CONTEXT ( ( #258 ) ) GLOBAL_UNIT_ASSIGNED_CONTEXT ( ( #184, #111, #58 ) ) REPRESENTATION_CONTEXT ( 'NONE', 'WORKASPACE' ) );
#90 = ORIENTED_EDGE ( 'NONE', *, *, #158, .F. ) ;
#91 = EDGE_CURVE ( 'NONE', #307, #269, #223, .T. ) ;
#92 = DIRECTION ( 'NONE',  ( 0.000000000000000000, 0.000000000000000000, 1.000000000000000000 ) ) ;
#93 = ORIENTED_EDGE ( 'NONE', *, *, #247, .F. ) ;
#94 = PRODUCT_DEFINITION_FORMATION_WITH_SPECIFIED_SOURCE ( 'LIBOVOLNÝ', '', #145, .NOT_KNOWN. ) ;
#95 = EDGE_LOOP ( 'NONE', ( #199, #23, #251, #298 ) ) ;
#96 = EDGE_CURVE ( 'NONE', #232, #70, #229, .T. ) ;
#97 = DIRECTION ( 'NONE',  ( 0.000000000000000000, 0.000000000000000000, 1.000000000000000000 ) ) ;
#98 = DIRECTION ( 'NONE',  ( -1.000000000000000000, 0.000000000000000000, 0.000000000000000000 ) ) ;
#99 = CIRCLE ( 'NONE', #142, 2.100000000000000089 ) ;
#100 = DIRECTION ( 'NONE',  ( 1.000000000000000000, 0.000000000000000000, 0.000000000000000000 ) ) ;
#101 = LOCAL_TIME ( 14, 49, 42.00000000000000000, #216 ) ;
#102 = LINE ( 'NONE', #5, #188 ) ;
#103 = CC_DESIGN_PERSON_AND_ORGANIZATION_ASSIGNMENT ( #81, #157, ( #131 ) ) ;
#104 = APPLICATION_PROTOCOL_DEFINITION ( 'international standard', 'config_control_design', 1994, #164 ) ;
#105 = CIRCLE ( 'NONE', #116, 4.000000000000000000 ) ;
#106 = LOCAL_TIME ( 14, 49, 42.00000000000000000, #185 ) ;
#107 = VERTEX_POINT ( 'NONE', #47 ) ;
#108 = PRODUCT_RELATED_PRODUCT_CATEGORY ( 'detail', '', ( #145 ) ) ;
#109 = MECHANICAL_CONTEXT ( 'NONE', #143, 'mechanical' ) ;
#110 = CALENDAR_DATE ( 2022, 7, 7 ) ;
#111 =( NAMED_UNIT ( * ) PLANE_ANGLE_UNIT ( ) SI_UNIT ( $, .RADIAN. ) );
#112 = LOCAL_TIME ( 14, 49, 42.00000000000000000, #85 ) ;
#113 = EDGE_CURVE ( 'NONE', #70, #232, #79, .T. ) ;
#114 = DATE_AND_TIME ( #241, #224 ) ;
#115 = EDGE_LOOP ( 'NONE', ( #208, #144, #159, #194 ) ) ;
#116 = AXIS2_PLACEMENT_3D ( 'NONE', #50, #171, #283 ) ;
#117 = PERSON_AND_ORGANIZATION_ROLE ( 'classification_officer' ) ;
#118 = FACE_OUTER_BOUND ( 'NONE', #95, .T. ) ;
#119 = CARTESIAN_POINT ( 'NONE',  ( -4.000000000000000000, 0.000000000000000000, 0.000000000000000000 ) ) ;
#120 = CARTESIAN_POINT ( 'NONE',  ( 0.000000000000000000, 0.000000000000000000, 253.0000000000000000 ) ) ;
#121 = EDGE_LOOP ( 'NONE', ( #138, #244 ) ) ;
#122 = CARTESIAN_POINT ( 'NONE',  ( 0.000000000000000000, 0.000000000000000000, 3.200000000000008171 ) ) ;
#123 = DIRECTION ( 'NONE',  ( -0.000000000000000000, -0.000000000000000000, -1.000000000000000000 ) ) ;
#124 = CYLINDRICAL_SURFACE ( 'NONE', #211, 2.100000000000000089 ) ;
#125 = AXIS2_PLACEMENT_3D ( 'NONE', #75, #128, #7 ) ;
#126 = ORIENTED_EDGE ( 'NONE', *, *, #166, .T. ) ;
#127 = CARTESIAN_POINT ( 'NONE',  ( 0.000000000000000000, 0.000000000000000000, 3.200000000000008171 ) ) ;
#128 = DIRECTION ( 'NONE',  ( 0.000000000000000000, 0.000000000000000000, 1.000000000000000000 ) ) ;
#129 = APPROVAL_ROLE ( '' ) ;
#130 = ADVANCED_BREP_SHAPE_REPRESENTATION ( '7882', ( #233, #137 ), #89 ) ;
#131 = PRODUCT_DEFINITION ( 'NEZNÁMÝ', '', #94, #38 ) ;
#132 = TOROIDAL_SURFACE ( 'NONE', #189, 2.300000000000000266, 0.2000000000000000111 ) ;
#133 = EDGE_LOOP ( 'NONE', ( #296, #281, #245, #93 ) ) ;
#134 = PERSON_AND_ORGANIZATION ( #2, #16 ) ;
#135 = CALENDAR_DATE ( 2022, 7, 7 ) ;
#136 = EDGE_CURVE ( 'NONE', #69, #162, #3, .T. ) ;
#137 = AXIS2_PLACEMENT_3D ( 'NONE', #39, #234, #36 ) ;
#138 = ORIENTED_EDGE ( 'NONE', *, *, #77, .T. ) ;
#139 = EDGE_CURVE ( 'NONE', #107, #69, #99, .T. ) ;
#140 = PERSON_AND_ORGANIZATION_ROLE ( 'design_supplier' ) ;
#141 = VERTEX_POINT ( 'NONE', #68 ) ;
#142 = AXIS2_PLACEMENT_3D ( 'NONE', #120, #195, #282 ) ;
#143 = APPLICATION_CONTEXT ( 'configuration controlled 3d designs of mechanical parts and assemblies' ) ;
#144 = ORIENTED_EDGE ( 'NONE', *, *, #136, .T. ) ;
#145 = PRODUCT ( '7882', '7882', '', ( #109 ) ) ;
#146 = DIRECTION ( 'NONE',  ( 1.000000000000000000, 0.000000000000000000, 0.000000000000000000 ) ) ;
#147 = DIRECTION ( 'NONE',  ( 1.000000000000000000, 0.000000000000000000, 0.000000000000000000 ) ) ;
#148 = AXIS2_PLACEMENT_3D ( 'NONE', #149, #287, #249 ) ;
#149 = CARTESIAN_POINT ( 'NONE',  ( 0.000000000000000000, 0.000000000000000000, 3.000000000000000000 ) ) ;
#150 = DIRECTION ( 'NONE',  ( 0.000000000000000000, 0.000000000000000000, 1.000000000000000000 ) ) ;
#151 = ADVANCED_FACE ( 'NONE', ( #172 ), #265, .T. ) ;
#152 = PLANE ( 'NONE',  #125 ) ;
#153 = ORIENTED_EDGE ( 'NONE', *, *, #260, .T. ) ;
#154 = APPROVAL_PERSON_ORGANIZATION ( #35, #220, #129 ) ;
#155 = PLANE ( 'NONE',  #177 ) ;
#156 = ORIENTED_EDGE ( 'NONE', *, *, #91, .F. ) ;
#157 = PERSON_AND_ORGANIZATION_ROLE ( 'creator' ) ;
#158 = EDGE_CURVE ( 'NONE', #141, #232, #102, .T. ) ;
#159 = ORIENTED_EDGE ( 'NONE', *, *, #174, .T. ) ;
#160 = DIRECTION ( 'NONE',  ( 0.000000000000000000, 0.000000000000000000, -1.000000000000000000 ) ) ;
#161 = ORIENTED_EDGE ( 'NONE', *, *, #295, .F. ) ;
#162 = VERTEX_POINT ( 'NONE', #235 ) ;
#163 = CIRCLE ( 'NONE', #12, 0.2000000000000000944 ) ;
#164 = APPLICATION_CONTEXT ( 'configuration controlled 3d designs of mechanical parts and assemblies' ) ;
#165 = CARTESIAN_POINT ( 'NONE',  ( -2.300000000000000266, 2.816687638038912549E-16, 3.000000000000004441 ) ) ;
#166 = EDGE_CURVE ( 'NONE', #269, #307, #86, .T. ) ;
#167 = PERSON_AND_ORGANIZATION ( #2, #16 ) ;
#168 = PERSON_AND_ORGANIZATION ( #2, #16 ) ;
#169 = APPROVAL ( #218, 'NEURÈENÝ' ) ;
#170 = DIRECTION ( 'NONE',  ( -1.000000000000000000, 0.000000000000000000, 0.000000000000000000 ) ) ;
#171 = DIRECTION ( 'NONE',  ( 0.000000000000000000, 0.000000000000000000, 1.000000000000000000 ) ) ;
#172 = FACE_OUTER_BOUND ( 'NONE', #219, .T. ) ;
#173 = ORIENTED_EDGE ( 'NONE', *, *, #113, .T. ) ;
#174 = EDGE_CURVE ( 'NONE', #162, #59, #252, .T. ) ;
#175 = CARTESIAN_POINT ( 'NONE',  ( 2.100000000000000089, 2.571758278209441957E-16, 253.0000000000000000 ) ) ;
#176 = CYLINDRICAL_SURFACE ( 'NONE', #148, 4.000000000000000000 ) ;
#177 = AXIS2_PLACEMENT_3D ( 'NONE', #181, #150, #292 ) ;
#178 = DIRECTION ( 'NONE',  ( -0.000000000000000000, -0.000000000000000000, -1.000000000000000000 ) ) ;
#179 = ADVANCED_FACE ( 'NONE', ( #206 ), #155, .F. ) ;
#180 = LINE ( 'NONE', #54, #215 ) ;
#181 = CARTESIAN_POINT ( 'NONE',  ( 0.000000000000000000, 0.000000000000000000, 0.000000000000000000 ) ) ;
#182 = EDGE_CURVE ( 'NONE', #107, #59, #9, .T. ) ;
#183 = CIRCLE ( 'NONE', #31, 0.2000000000000000944 ) ;
#184 =( LENGTH_UNIT ( ) NAMED_UNIT ( * ) SI_UNIT ( .MILLI., .METRE. ) );
#185 = COORDINATED_UNIVERSAL_TIME_OFFSET ( 1, 0, .AHEAD. ) ;
#186 = CARTESIAN_POINT ( 'NONE',  ( 0.000000000000000000, 0.000000000000000000, 3.200000000000008171 ) ) ;
#187 = DIRECTION ( 'NONE',  ( 0.000000000000000000, -1.000000000000000000, 0.000000000000000000 ) ) ;
#188 = VECTOR ( 'NONE', #73, 1000.000000000000000 ) ;
#189 = AXIS2_PLACEMENT_3D ( 'NONE', #186, #78, #274 ) ;
#190 = CARTESIAN_POINT ( 'NONE',  ( 2.300000000000000266, 0.000000000000000000, 3.000000000000004441 ) ) ;
#191 = ADVANCED_FACE ( 'NONE', ( #205 ), #124, .T. ) ;
#192 = APPROVAL_DATE_TIME ( #305, #169 ) ;
#193 = AXIS2_PLACEMENT_3D ( 'NONE', #277, #15, #212 ) ;
#194 = ORIENTED_EDGE ( 'NONE', *, *, #182, .F. ) ;
#195 = DIRECTION ( 'NONE',  ( 0.000000000000000000, 0.000000000000000000, 1.000000000000000000 ) ) ;
#196 = CYLINDRICAL_SURFACE ( 'NONE', #42, 2.100000000000000089 ) ;
#197 = AXIS2_PLACEMENT_3D ( 'NONE', #286, #285, #49 ) ;
#198 = CC_DESIGN_PERSON_AND_ORGANIZATION_ASSIGNMENT ( #17, #88, ( #94 ) ) ;
#199 = ORIENTED_EDGE ( 'NONE', *, *, #136, .F. ) ;
#200 = ORIENTED_EDGE ( 'NONE', *, *, #291, .T. ) ;
#201 = ADVANCED_FACE ( 'NONE', ( #270, #250 ), #152, .T. ) ;
#202 = FACE_OUTER_BOUND ( 'NONE', #133, .T. ) ;
#203 = CLOSED_SHELL ( 'NONE', ( #256, #191, #209, #236, #201, #179, #41, #151, #264 ) ) ;
#204 = CIRCLE ( 'NONE', #22, 2.100000000000000089 ) ;
#205 = FACE_OUTER_BOUND ( 'NONE', #115, .T. ) ;
#206 = FACE_OUTER_BOUND ( 'NONE', #222, .T. ) ;
#207 = ORIENTED_EDGE ( 'NONE', *, *, #166, .F. ) ;
#208 = ORIENTED_EDGE ( 'NONE', *, *, #291, .F. ) ;
#209 = ADVANCED_FACE ( 'NONE', ( #202 ), #176, .T. ) ;
#210 = AXIS2_PLACEMENT_3D ( 'NONE', #26, #263, #147 ) ;
#211 = AXIS2_PLACEMENT_3D ( 'NONE', #290, #231, #98 ) ;
#212 = DIRECTION ( 'NONE',  ( 1.000000000000000000, 0.000000000000000000, 0.000000000000000000 ) ) ;
#213 = DIRECTION ( 'NONE',  ( 0.000000000000000000, 0.000000000000000000, 1.000000000000000000 ) ) ;
#214 = EDGE_CURVE ( 'NONE', #59, #269, #183, .T. ) ;
#215 = VECTOR ( 'NONE', #29, 1000.000000000000000 ) ;
#216 = COORDINATED_UNIVERSAL_TIME_OFFSET ( 1, 0, .AHEAD. ) ;
#217 = CARTESIAN_POINT ( 'NONE',  ( -4.000000000000000000, 0.000000000000000000, 3.000000000000000000 ) ) ;
#218 = APPROVAL_STATUS ( 'not_yet_approved' ) ;
#219 = EDGE_LOOP ( 'NONE', ( #1, #200 ) ) ;
#220 = APPROVAL ( #60, 'NEURÈENÝ' ) ;
#221 = DIRECTION ( 'NONE',  ( 0.000000000000000000, 0.000000000000000000, 1.000000000000000000 ) ) ;
#222 = EDGE_LOOP ( 'NONE', ( #262, #34 ) ) ;
#223 = CIRCLE ( 'NONE', #210, 2.300000000000000266 ) ;
#224 = LOCAL_TIME ( 14, 49, 42.00000000000000000, #302 ) ;
#225 = DIRECTION ( 'NONE',  ( -0.000000000000000000, -0.000000000000000000, -1.000000000000000000 ) ) ;
#226 = CC_DESIGN_DATE_AND_TIME_ASSIGNMENT ( #114, #66, ( #243 ) ) ;
#227 = CARTESIAN_POINT ( 'NONE',  ( -2.300000000000000266, 2.816687638038912549E-16, 3.200000000000008171 ) ) ;
#228 = CARTESIAN_POINT ( 'NONE',  ( 0.000000000000000000, 0.000000000000000000, 3.000000000000000000 ) ) ;
#229 = CIRCLE ( 'NONE', #288, 4.000000000000000000 ) ;
#230 = APPROVAL_PERSON_ORGANIZATION ( #21, #169, #64 ) ;
#231 = DIRECTION ( 'NONE',  ( -0.000000000000000000, -0.000000000000000000, -1.000000000000000000 ) ) ;
#232 = VERTEX_POINT ( 'NONE', #56 ) ;
#233 = MANIFOLD_SOLID_BREP ( 'Zaoblit1', #203 ) ;
#234 = DIRECTION ( 'NONE',  ( 0.000000000000000000, 0.000000000000000000, 1.000000000000000000 ) ) ;
#235 = CARTESIAN_POINT ( 'NONE',  ( 2.100000000000000089, 2.571758278209441957E-16, 3.200000000000008171 ) ) ;
#236 = ADVANCED_FACE ( 'NONE', ( #4 ), #253, .T. ) ;
#237 = COORDINATED_UNIVERSAL_TIME_OFFSET ( 1, 0, .AHEAD. ) ;
#238 = LOCAL_TIME ( 14, 49, 42.00000000000000000, #237 ) ;
#239 = DIRECTION ( 'NONE',  ( 1.000000000000000000, 0.000000000000000000, 0.000000000000000000 ) ) ;
#240 = ORIENTED_EDGE ( 'NONE', *, *, #77, .F. ) ;
#241 = CALENDAR_DATE ( 2022, 7, 7 ) ;
#242 = ORIENTED_EDGE ( 'NONE', *, *, #174, .F. ) ;
#243 = SECURITY_CLASSIFICATION ( '', '', #44 ) ;
#244 = ORIENTED_EDGE ( 'NONE', *, *, #10, .T. ) ;
#245 = ORIENTED_EDGE ( 'NONE', *, *, #96, .T. ) ;
#246 = CARTESIAN_POINT ( 'NONE',  ( 2.100000000000000089, 2.571758278209441957E-16, 253.0000000000000000 ) ) ;
#247 = EDGE_CURVE ( 'NONE', #40, #70, #180, .T. ) ;
#248 = CIRCLE ( 'NONE', #193, 2.100000000000000089 ) ;
#249 = DIRECTION ( 'NONE',  ( -1.000000000000000000, 0.000000000000000000, 0.000000000000000000 ) ) ;
#250 = FACE_OUTER_BOUND ( 'NONE', #121, .T. ) ;
#251 = ORIENTED_EDGE ( 'NONE', *, *, #182, .T. ) ;
#252 = CIRCLE ( 'NONE', #257, 2.100000000000000089 ) ;
#253 = CYLINDRICAL_SURFACE ( 'NONE', #284, 4.000000000000000000 ) ;
#254 = DATE_AND_TIME ( #135, #106 ) ;
#255 = EDGE_LOOP ( 'NONE', ( #161, #82, #156, #278 ) ) ;
#256 = ADVANCED_FACE ( 'NONE', ( #272 ), #132, .F. ) ;
#257 = AXIS2_PLACEMENT_3D ( 'NONE', #122, #33, #52 ) ;
#258 = UNCERTAINTY_MEASURE_WITH_UNIT (LENGTH_MEASURE( 1.000000000000000082E-05 ), #184, 'distance_accuracy_value', 'NONE');
#259 = APPROVAL_STATUS ( 'not_yet_approved' ) ;
#260 = EDGE_CURVE ( 'NONE', #162, #307, #163, .T. ) ;
#261 = DATE_AND_TIME ( #110, #238 ) ;
#262 = ORIENTED_EDGE ( 'NONE', *, *, #113, .F. ) ;
#263 = DIRECTION ( 'NONE',  ( -0.000000000000000000, -0.000000000000000000, -1.000000000000000000 ) ) ;
#264 = ADVANCED_FACE ( 'NONE', ( #87 ), #65, .F. ) ;
#265 = PLANE ( 'NONE',  #6 ) ;
#266 = CC_DESIGN_APPROVAL ( #169, ( #243 ) ) ;
#267 = CARTESIAN_POINT ( 'NONE',  ( 0.000000000000000000, 0.000000000000000000, 253.0000000000000000 ) ) ;
#268 = APPROVAL ( #259, 'NEURÈENÝ' ) ;
#269 = VERTEX_POINT ( 'NONE', #165 ) ;
#270 = FACE_BOUND ( 'NONE', #276, .T. ) ;
#271 = DIRECTION ( 'NONE',  ( -1.000000000000000000, 0.000000000000000000, 0.000000000000000000 ) ) ;
#272 = FACE_OUTER_BOUND ( 'NONE', #255, .T. ) ;
#273 = DIRECTION ( 'NONE',  ( -1.000000000000000000, 1.224646799147353207E-16, 0.000000000000000000 ) ) ;
#274 = DIRECTION ( 'NONE',  ( 1.000000000000000000, 0.000000000000000000, 0.000000000000000000 ) ) ;
#275 = CC_DESIGN_PERSON_AND_ORGANIZATION_ASSIGNMENT ( #167, #117, ( #243 ) ) ;
#276 = EDGE_LOOP ( 'NONE', ( #13, #126 ) ) ;
#277 = CARTESIAN_POINT ( 'NONE',  ( 0.000000000000000000, 0.000000000000000000, 253.0000000000000000 ) ) ;
#278 = ORIENTED_EDGE ( 'NONE', *, *, #260, .F. ) ;
#279 = CIRCLE ( 'NONE', #197, 4.000000000000000000 ) ;
#280 = PERSON_AND_ORGANIZATION_ROLE ( 'design_owner' ) ;
#281 = ORIENTED_EDGE ( 'NONE', *, *, #158, .T. ) ;
#282 = DIRECTION ( 'NONE',  ( 1.000000000000000000, 0.000000000000000000, 0.000000000000000000 ) ) ;
#283 = DIRECTION ( 'NONE',  ( 1.000000000000000000, 0.000000000000000000, 0.000000000000000000 ) ) ;
#284 = AXIS2_PLACEMENT_3D ( 'NONE', #74, #178, #271 ) ;
#285 = DIRECTION ( 'NONE',  ( 0.000000000000000000, 0.000000000000000000, 1.000000000000000000 ) ) ;
#286 = CARTESIAN_POINT ( 'NONE',  ( 0.000000000000000000, 0.000000000000000000, 3.000000000000000000 ) ) ;
#287 = DIRECTION ( 'NONE',  ( -0.000000000000000000, -0.000000000000000000, -1.000000000000000000 ) ) ;
#288 = AXIS2_PLACEMENT_3D ( 'NONE', #25, #221, #306 ) ;
#289 = VECTOR ( 'NONE', #28, 1000.000000000000000 ) ;
#290 = CARTESIAN_POINT ( 'NONE',  ( 0.000000000000000000, 0.000000000000000000, 253.0000000000000000 ) ) ;
#291 = EDGE_CURVE ( 'NONE', #69, #107, #248, .T. ) ;
#292 = DIRECTION ( 'NONE',  ( 1.000000000000000000, 0.000000000000000000, -0.000000000000000000 ) ) ;
#293 = ORIENTED_EDGE ( 'NONE', *, *, #214, .F. ) ;
#294 = PERSON_AND_ORGANIZATION ( #2, #16 ) ;
#295 = EDGE_CURVE ( 'NONE', #59, #162, #204, .T. ) ;
#296 = ORIENTED_EDGE ( 'NONE', *, *, #10, .F. ) ;
#297 = DATE_TIME_ROLE ( 'creation_date' ) ;
#298 = ORIENTED_EDGE ( 'NONE', *, *, #295, .T. ) ;
#299 = DIRECTION ( 'NONE',  ( 1.000000000000000000, 0.000000000000000000, 0.000000000000000000 ) ) ;
#300 = AXIS2_PLACEMENT_3D ( 'NONE', #228, #123, #100 ) ;
#301 = CARTESIAN_POINT ( 'NONE',  ( 2.300000000000000266, 0.000000000000000000, 3.200000000000008171 ) ) ;
#302 = COORDINATED_UNIVERSAL_TIME_OFFSET ( 1, 0, .AHEAD. ) ;
#303 = APPROVAL_PERSON_ORGANIZATION ( #134, #268, #57 ) ;
#304 = DIRECTION ( 'NONE',  ( -0.000000000000000000, -0.000000000000000000, -1.000000000000000000 ) ) ;
#305 = DATE_AND_TIME ( #18, #101 ) ;
#306 = DIRECTION ( 'NONE',  ( 1.000000000000000000, 0.000000000000000000, 0.000000000000000000 ) ) ;
#307 = VERTEX_POINT ( 'NONE', #190 ) ;
ENDSEC;
END-ISO-10303-21;
