ISO-10303-21;
HEADER;
FILE_DESCRIPTION (( 'STEP AP203' ),
    '1' );
FILE_NAME ('71f0.STEP',
    '2022-07-07T12:28:17',
    ( '' ),
    ( '' ),
    'SwSTEP 2.0',
    'SolidWorks 2019',
    '' );
FILE_SCHEMA (( 'CONFIG_CONTROL_DESIGN' ));
ENDSEC;

DATA;
#1 = EDGE_LOOP ( 'NONE', ( #4, #181 ) ) ;
#2 = LOCAL_TIME ( 14, 28, 17.00000000000000000, #257 ) ;
#3 = CARTESIAN_POINT ( 'NONE',  ( 0.000000000000000000, 0.000000000000000000, 0.000000000000000000 ) ) ;
#4 = ORIENTED_EDGE ( 'NONE', *, *, #226, .T. ) ;
#5 = APPROVAL_PERSON_ORGANIZATION ( #38, #58, #108 ) ;
#6 = ORIENTED_EDGE ( 'NONE', *, *, #116, .F. ) ;
#7 = CARTESIAN_POINT ( 'NONE',  ( 8.000000000000000000, 9.797174393178825657E-16, 5.000000000000000000 ) ) ;
#8 = ADVANCED_BREP_SHAPE_REPRESENTATION ( '71f0', ( #79, #183 ), #279 ) ;
#9 = DIRECTION ( 'NONE',  ( 0.000000000000000000, 0.000000000000000000, 1.000000000000000000 ) ) ;
#10 = EDGE_CURVE ( 'NONE', #68, #207, #138, .T. ) ;
#11 = AXIS2_PLACEMENT_3D ( 'NONE', #236, #72, #189 ) ;
#12 = CYLINDRICAL_SURFACE ( 'NONE', #235, 8.000000000000000000 ) ;
#13 = CARTESIAN_POINT ( 'NONE',  ( 0.000000000000000000, 0.000000000000000000, 165.0000000000000000 ) ) ;
#14 = PERSON_AND_ORGANIZATION ( #124, #136 ) ;
#15 = EDGE_CURVE ( 'NONE', #89, #283, #208, .T. ) ;
#16 = DIRECTION ( 'NONE',  ( 0.000000000000000000, 0.000000000000000000, 1.000000000000000000 ) ) ;
#17 = ORIENTED_EDGE ( 'NONE', *, *, #85, .F. ) ;
#18 = DATE_AND_TIME ( #299, #168 ) ;
#19 = TOROIDAL_SURFACE ( 'NONE', #262, 5.200000000000000178, 0.2000000000000000111 ) ;
#20 = APPROVAL_ROLE ( '' ) ;
#21 = EDGE_LOOP ( 'NONE', ( #277, #41, #301, #204 ) ) ;
#22 = DIRECTION ( 'NONE',  ( 1.224646799147353207E-16, 1.000000000000000000, -0.000000000000000000 ) ) ;
#23 = CARTESIAN_POINT ( 'NONE',  ( -5.000000000000000000, 0.000000000000000000, 5.200000000000009948 ) ) ;
#24 = FACE_OUTER_BOUND ( 'NONE', #91, .T. ) ;
#25 = DIRECTION ( 'NONE',  ( -0.000000000000000000, -0.000000000000000000, -1.000000000000000000 ) ) ;
#26 = EDGE_CURVE ( 'NONE', #307, #264, #114, .T. ) ;
#27 = CARTESIAN_POINT ( 'NONE',  ( -5.000000000000000000, 0.000000000000000000, 165.0000000000000000 ) ) ;
#28 = DIRECTION ( 'NONE',  ( -0.000000000000000000, -0.000000000000000000, -1.000000000000000000 ) ) ;
#29 = EDGE_CURVE ( 'NONE', #119, #300, #255, .T. ) ;
#30 = CARTESIAN_POINT ( 'NONE',  ( 0.000000000000000000, 0.000000000000000000, 5.000000000000000000 ) ) ;
#31 = AXIS2_PLACEMENT_3D ( 'NONE', #298, #127, #121 ) ;
#32 = CARTESIAN_POINT ( 'NONE',  ( 8.000000000000000000, 9.797174393178825657E-16, 0.000000000000000000 ) ) ;
#33 = DIRECTION ( 'NONE',  ( 0.000000000000000000, 0.000000000000000000, 1.000000000000000000 ) ) ;
#34 = DATE_AND_TIME ( #250, #267 ) ;
#35 = CC_DESIGN_DATE_AND_TIME_ASSIGNMENT ( #34, #152, ( #76 ) ) ;
#36 = CARTESIAN_POINT ( 'NONE',  ( 0.000000000000000000, 0.000000000000000000, 0.000000000000000000 ) ) ;
#37 = PERSON_AND_ORGANIZATION ( #124, #136 ) ;
#38 = PERSON_AND_ORGANIZATION ( #124, #136 ) ;
#39 = DIRECTION ( 'NONE',  ( 1.000000000000000000, 0.000000000000000000, 0.000000000000000000 ) ) ;
#40 = AXIS2_PLACEMENT_3D ( 'NONE', #195, #292, #150 ) ;
#41 = ORIENTED_EDGE ( 'NONE', *, *, #247, .F. ) ;
#42 = DIRECTION ( 'NONE',  ( -0.000000000000000000, -0.000000000000000000, -1.000000000000000000 ) ) ;
#43 = CIRCLE ( 'NONE', #187, 5.200000000000000178 ) ;
#44 = ORIENTED_EDGE ( 'NONE', *, *, #116, .T. ) ;
#45 = AXIS2_PLACEMENT_3D ( 'NONE', #3, #285, #70 ) ;
#46 = ADVANCED_FACE ( 'NONE', ( #24 ), #261, .F. ) ;
#47 = CARTESIAN_POINT ( 'NONE',  ( 5.000000000000000000, 6.123233995736766282E-16, 165.0000000000000000 ) ) ;
#48 = DIRECTION ( 'NONE',  ( -0.000000000000000000, -0.000000000000000000, -1.000000000000000000 ) ) ;
#49 = CC_DESIGN_APPROVAL ( #58, ( #63 ) ) ;
#50 =( LENGTH_UNIT ( ) NAMED_UNIT ( * ) SI_UNIT ( .MILLI., .METRE. ) );
#51 = ADVANCED_FACE ( 'NONE', ( #184 ), #188, .T. ) ;
#52 = DIRECTION ( 'NONE',  ( -1.000000000000000000, 0.000000000000000000, 0.000000000000000000 ) ) ;
#53 = UNCERTAINTY_MEASURE_WITH_UNIT (LENGTH_MEASURE( 1.000000000000000082E-05 ), #50, 'distance_accuracy_value', 'NONE');
#54 = DIRECTION ( 'NONE',  ( 0.000000000000000000, 0.000000000000000000, 1.000000000000000000 ) ) ;
#55 = AXIS2_PLACEMENT_3D ( 'NONE', #13, #9, #244 ) ;
#56 = CYLINDRICAL_SURFACE ( 'NONE', #230, 5.000000000000000000 ) ;
#57 = FACE_OUTER_BOUND ( 'NONE', #21, .T. ) ;
#58 = APPROVAL ( #303, 'NEURÈENÝ' ) ;
#59 = ORIENTED_EDGE ( 'NONE', *, *, #130, .F. ) ;
#60 = AXIS2_PLACEMENT_3D ( 'NONE', #101, #193, #149 ) ;
#61 = PERSON_AND_ORGANIZATION_ROLE ( 'design_owner' ) ;
#62 = ORIENTED_EDGE ( 'NONE', *, *, #29, .T. ) ;
#63 = PRODUCT_DEFINITION ( 'NEZNÁMÝ', '', #258, #100 ) ;
#64 = ORIENTED_EDGE ( 'NONE', *, *, #106, .F. ) ;
#65 = APPROVAL_DATE_TIME ( #306, #58 ) ;
#66 = ORIENTED_EDGE ( 'NONE', *, *, #10, .F. ) ;
#67 = PERSON_AND_ORGANIZATION_ROLE ( 'classification_officer' ) ;
#68 = VERTEX_POINT ( 'NONE', #234 ) ;
#69 = DIRECTION ( 'NONE',  ( -0.000000000000000000, -0.000000000000000000, -1.000000000000000000 ) ) ;
#70 = DIRECTION ( 'NONE',  ( 1.000000000000000000, 0.000000000000000000, -0.000000000000000000 ) ) ;
#71 = CARTESIAN_POINT ( 'NONE',  ( 0.000000000000000000, 0.000000000000000000, 0.000000000000000000 ) ) ;
#72 = DIRECTION ( 'NONE',  ( 0.000000000000000000, 0.000000000000000000, 1.000000000000000000 ) ) ;
#73 = FACE_OUTER_BOUND ( 'NONE', #186, .T. ) ;
#74 = CARTESIAN_POINT ( 'NONE',  ( 0.000000000000000000, 0.000000000000000000, 5.000000000000000000 ) ) ;
#75 = APPROVAL ( #88, 'NEURÈENÝ' ) ;
#76 = SECURITY_CLASSIFICATION ( '', '', #225 ) ;
#77 = DIRECTION ( 'NONE',  ( 1.000000000000000000, 0.000000000000000000, 0.000000000000000000 ) ) ;
#78 = CARTESIAN_POINT ( 'NONE',  ( 0.000000000000000000, 0.000000000000000000, 5.000000000000000000 ) ) ;
#79 = MANIFOLD_SOLID_BREP ( 'Zaoblit1', #126 ) ;
#80 = DIRECTION ( 'NONE',  ( 1.000000000000000000, 0.000000000000000000, 0.000000000000000000 ) ) ;
#81 = DIRECTION ( 'NONE',  ( 0.000000000000000000, 0.000000000000000000, 1.000000000000000000 ) ) ;
#82 = COORDINATED_UNIVERSAL_TIME_OFFSET ( 1, 0, .AHEAD. ) ;
#83 = COORDINATED_UNIVERSAL_TIME_OFFSET ( 1, 0, .AHEAD. ) ;
#84 = ORIENTED_EDGE ( 'NONE', *, *, #226, .F. ) ;
#85 = EDGE_CURVE ( 'NONE', #264, #283, #290, .T. ) ;
#86 = APPLICATION_PROTOCOL_DEFINITION ( 'international standard', 'config_control_design', 1994, #224 ) ;
#87 = VERTEX_POINT ( 'NONE', #23 ) ;
#88 = APPROVAL_STATUS ( 'not_yet_approved' ) ;
#89 = VERTEX_POINT ( 'NONE', #117 ) ;
#90 = EDGE_CURVE ( 'NONE', #87, #162, #220, .T. ) ;
#91 = EDGE_LOOP ( 'NONE', ( #64, #17 ) ) ;
#92 = VECTOR ( 'NONE', #69, 1000.000000000000000 ) ;
#93 = DIRECTION ( 'NONE',  ( -0.000000000000000000, -0.000000000000000000, -1.000000000000000000 ) ) ;
#94 = DIRECTION ( 'NONE',  ( 0.000000000000000000, 0.000000000000000000, 1.000000000000000000 ) ) ;
#95 = CC_DESIGN_PERSON_AND_ORGANIZATION_ASSIGNMENT ( #37, #282, ( #258 ) ) ;
#96 = CARTESIAN_POINT ( 'NONE',  ( 8.000000000000000000, 9.797174393178825657E-16, 5.000000000000000000 ) ) ;
#97 = DIRECTION ( 'NONE',  ( 1.000000000000000000, 0.000000000000000000, 0.000000000000000000 ) ) ;
#98 = DIRECTION ( 'NONE',  ( -0.000000000000000000, -0.000000000000000000, -1.000000000000000000 ) ) ;
#99 = DIRECTION ( 'NONE',  ( 1.000000000000000000, 0.000000000000000000, 0.000000000000000000 ) ) ;
#100 = DESIGN_CONTEXT ( 'detailed design', #241, 'design' ) ;
#101 = CARTESIAN_POINT ( 'NONE',  ( 0.000000000000000000, 0.000000000000000000, 5.200000000000009948 ) ) ;
#102 = CARTESIAN_POINT ( 'NONE',  ( -5.200000000000000178, 6.368163355566236381E-16, 5.000000000000005329 ) ) ;
#103 = EDGE_CURVE ( 'NONE', #87, #207, #202, .T. ) ;
#104 = FACE_OUTER_BOUND ( 'NONE', #153, .T. ) ;
#105 = COORDINATED_UNIVERSAL_TIME_OFFSET ( 1, 0, .AHEAD. ) ;
#106 = EDGE_CURVE ( 'NONE', #283, #264, #111, .T. ) ;
#107 = ORIENTED_EDGE ( 'NONE', *, *, #233, .F. ) ;
#108 = APPROVAL_ROLE ( '' ) ;
#109 = EDGE_LOOP ( 'NONE', ( #304, #84, #159, #281 ) ) ;
#110 = CALENDAR_DATE ( 2022, 7, 7 ) ;
#111 = CIRCLE ( 'NONE', #249, 8.000000000000000000 ) ;
#112 = ORIENTED_EDGE ( 'NONE', *, *, #161, .F. ) ;
#113 = CC_DESIGN_PERSON_AND_ORGANIZATION_ASSIGNMENT ( #178, #61, ( #289 ) ) ;
#114 = LINE ( 'NONE', #96, #269 ) ;
#115 = CARTESIAN_POINT ( 'NONE',  ( 0.000000000000000000, 0.000000000000000000, 165.0000000000000000 ) ) ;
#116 = EDGE_CURVE ( 'NONE', #119, #162, #163, .T. ) ;
#117 = CARTESIAN_POINT ( 'NONE',  ( -8.000000000000000000, 0.000000000000000000, 5.000000000000000000 ) ) ;
#118 = CARTESIAN_POINT ( 'NONE',  ( 0.000000000000000000, 0.000000000000000000, 165.0000000000000000 ) ) ;
#119 = VERTEX_POINT ( 'NONE', #47 ) ;
#120 = AXIS2_PLACEMENT_3D ( 'NONE', #171, #81, #274 ) ;
#121 = DIRECTION ( 'NONE',  ( 1.000000000000000000, 0.000000000000000000, 0.000000000000000000 ) ) ;
#122 = FACE_BOUND ( 'NONE', #179, .T. ) ;
#123 = AXIS2_PLACEMENT_3D ( 'NONE', #78, #54, #99 ) ;
#124 = PERSON ( 'NEURÈENÝ', 'NEURÈENÝ', 'NEURÈENÝ', ('NEURÈENÝ'), ('NEURÈENÝ'), ('NEURÈENÝ') ) ;
#125 = PLANE ( 'NONE',  #40 ) ;
#126 = CLOSED_SHELL ( 'NONE', ( #155, #170, #146, #192, #215, #46, #51, #286, #210 ) ) ;
#127 = DIRECTION ( 'NONE',  ( 0.000000000000000000, 0.000000000000000000, 1.000000000000000000 ) ) ;
#128 = PERSON_AND_ORGANIZATION ( #124, #136 ) ;
#129 = APPROVAL_PERSON_ORGANIZATION ( #128, #206, #227 ) ;
#130 = EDGE_CURVE ( 'NONE', #300, #87, #291, .T. ) ;
#131 = DATE_TIME_ROLE ( 'creation_date' ) ;
#132 = ORIENTED_EDGE ( 'NONE', *, *, #103, .T. ) ;
#133 = AXIS2_PLACEMENT_3D ( 'NONE', #115, #145, #237 ) ;
#134 = PERSON_AND_ORGANIZATION ( #124, #136 ) ;
#135 = PERSON_AND_ORGANIZATION ( #124, #136 ) ;
#136 = ORGANIZATION ( 'NEURÈENÝ', 'NEURÈENÝ', '' ) ;
#137 = PERSON_AND_ORGANIZATION_ROLE ( 'creator' ) ;
#138 = CIRCLE ( 'NONE', #142, 5.200000000000000178 ) ;
#139 = ORIENTED_EDGE ( 'NONE', *, *, #166, .F. ) ;
#140 = ORIENTED_EDGE ( 'NONE', *, *, #247, .T. ) ;
#141 = DIRECTION ( 'NONE',  ( -1.000000000000000000, 0.000000000000000000, 0.000000000000000000 ) ) ;
#142 = AXIS2_PLACEMENT_3D ( 'NONE', #238, #93, #97 ) ;
#143 = CARTESIAN_POINT ( 'NONE',  ( -8.000000000000000000, 0.000000000000000000, 5.000000000000000000 ) ) ;
#144 = CARTESIAN_POINT ( 'NONE',  ( -5.000000000000000000, 0.000000000000000000, 165.0000000000000000 ) ) ;
#145 = DIRECTION ( 'NONE',  ( 0.000000000000000000, 0.000000000000000000, 1.000000000000000000 ) ) ;
#146 = ADVANCED_FACE ( 'NONE', ( #73 ), #240, .T. ) ;
#147 = FACE_OUTER_BOUND ( 'NONE', #280, .T. ) ;
#148 = PRODUCT_RELATED_PRODUCT_CATEGORY ( 'detail', '', ( #289 ) ) ;
#149 = DIRECTION ( 'NONE',  ( 1.000000000000000000, 0.000000000000000000, 0.000000000000000000 ) ) ;
#150 = DIRECTION ( 'NONE',  ( 1.000000000000000000, 0.000000000000000000, -0.000000000000000000 ) ) ;
#151 = LOCAL_TIME ( 14, 28, 17.00000000000000000, #83 ) ;
#152 = DATE_TIME_ROLE ( 'classification_date' ) ;
#153 = EDGE_LOOP ( 'NONE', ( #198, #62 ) ) ;
#154 = ORIENTED_EDGE ( 'NONE', *, *, #90, .T. ) ;
#155 = ADVANCED_FACE ( 'NONE', ( #172 ), #19, .F. ) ;
#156 = MECHANICAL_CONTEXT ( 'NONE', #224, 'mechanical' ) ;
#157 = ORIENTED_EDGE ( 'NONE', *, *, #197, .T. ) ;
#158 = TOROIDAL_SURFACE ( 'NONE', #31, 5.200000000000000178, 0.2000000000000000111 ) ;
#159 = ORIENTED_EDGE ( 'NONE', *, *, #15, .T. ) ;
#160 = CARTESIAN_POINT ( 'NONE',  ( -5.200000000000000178, 6.368163355566236381E-16, 5.200000000000009948 ) ) ;
#161 = EDGE_CURVE ( 'NONE', #307, #89, #200, .T. ) ;
#162 = VERTEX_POINT ( 'NONE', #295 ) ;
#163 = LINE ( 'NONE', #288, #275 ) ;
#164 = AXIS2_PLACEMENT_3D ( 'NONE', #118, #42, #141 ) ;
#165 = CARTESIAN_POINT ( 'NONE',  ( 0.000000000000000000, 0.000000000000000000, 5.200000000000009948 ) ) ;
#166 = EDGE_CURVE ( 'NONE', #162, #68, #173, .T. ) ;
#167 = DIRECTION ( 'NONE',  ( 1.000000000000000000, 0.000000000000000000, 0.000000000000000000 ) ) ;
#168 = LOCAL_TIME ( 14, 28, 17.00000000000000000, #105 ) ;
#169 = CARTESIAN_POINT ( 'NONE',  ( 0.000000000000000000, 0.000000000000000000, 5.200000000000009948 ) ) ;
#170 = ADVANCED_FACE ( 'NONE', ( #147 ), #56, .T. ) ;
#171 = CARTESIAN_POINT ( 'NONE',  ( 0.000000000000000000, 0.000000000000000000, 5.000000000000000000 ) ) ;
#172 = FACE_OUTER_BOUND ( 'NONE', #254, .T. ) ;
#173 = CIRCLE ( 'NONE', #239, 0.1999999999999996503 ) ;
#174 = DIRECTION ( 'NONE',  ( -1.000000000000000000, 0.000000000000000000, 0.000000000000000000 ) ) ;
#175 = APPROVAL_DATE_TIME ( #18, #206 ) ;
#176 = CC_DESIGN_DATE_AND_TIME_ASSIGNMENT ( #201, #131, ( #63 ) ) ;
#177 = APPROVAL_DATE_TIME ( #203, #75 ) ;
#178 = PERSON_AND_ORGANIZATION ( #124, #136 ) ;
#179 = EDGE_LOOP ( 'NONE', ( #232, #157 ) ) ;
#180 = CALENDAR_DATE ( 2022, 7, 7 ) ;
#181 = ORIENTED_EDGE ( 'NONE', *, *, #161, .T. ) ;
#182 = COORDINATED_UNIVERSAL_TIME_OFFSET ( 1, 0, .AHEAD. ) ;
#183 = AXIS2_PLACEMENT_3D ( 'NONE', #36, #16, #39 ) ;
#184 = FACE_OUTER_BOUND ( 'NONE', #266, .T. ) ;
#185 = DIRECTION ( 'NONE',  ( -0.000000000000000000, -0.000000000000000000, -1.000000000000000000 ) ) ;
#186 = EDGE_LOOP ( 'NONE', ( #112, #265, #212, #256 ) ) ;
#187 = AXIS2_PLACEMENT_3D ( 'NONE', #30, #28, #80 ) ;
#188 = CYLINDRICAL_SURFACE ( 'NONE', #164, 5.000000000000000000 ) ;
#189 = DIRECTION ( 'NONE',  ( 1.000000000000000000, 0.000000000000000000, 0.000000000000000000 ) ) ;
#190 = DIRECTION ( 'NONE',  ( -0.000000000000000000, -0.000000000000000000, -1.000000000000000000 ) ) ;
#191 = CC_DESIGN_SECURITY_CLASSIFICATION ( #76, ( #258 ) ) ;
#192 = ADVANCED_FACE ( 'NONE', ( #213 ), #12, .T. ) ;
#193 = DIRECTION ( 'NONE',  ( 0.000000000000000000, 0.000000000000000000, 1.000000000000000000 ) ) ;
#194 = DIRECTION ( 'NONE',  ( 0.000000000000000000, 0.000000000000000000, 1.000000000000000000 ) ) ;
#195 = CARTESIAN_POINT ( 'NONE',  ( 0.000000000000000000, 0.000000000000000000, 165.0000000000000000 ) ) ;
#196 = CIRCLE ( 'NONE', #123, 8.000000000000000000 ) ;
#197 = EDGE_CURVE ( 'NONE', #207, #68, #43, .T. ) ;
#198 = ORIENTED_EDGE ( 'NONE', *, *, #233, .T. ) ;
#199 = CC_DESIGN_PERSON_AND_ORGANIZATION_ASSIGNMENT ( #134, #67, ( #76 ) ) ;
#200 = CIRCLE ( 'NONE', #120, 8.000000000000000000 ) ;
#201 = DATE_AND_TIME ( #231, #2 ) ;
#202 = CIRCLE ( 'NONE', #248, 0.1999999999999996503 ) ;
#203 = DATE_AND_TIME ( #110, #151 ) ;
#204 = ORIENTED_EDGE ( 'NONE', *, *, #197, .F. ) ;
#205 = CARTESIAN_POINT ( 'NONE',  ( 0.000000000000000000, 0.000000000000000000, 5.000000000000000000 ) ) ;
#206 = APPROVAL ( #222, 'NEURÈENÝ' ) ;
#207 = VERTEX_POINT ( 'NONE', #102 ) ;
#208 = LINE ( 'NONE', #143, #92 ) ;
#209 = DIRECTION ( 'NONE',  ( 0.000000000000000000, 0.000000000000000000, 1.000000000000000000 ) ) ;
#210 = ADVANCED_FACE ( 'NONE', ( #57 ), #158, .F. ) ;
#211 = LOCAL_TIME ( 14, 28, 17.00000000000000000, #182 ) ;
#212 = ORIENTED_EDGE ( 'NONE', *, *, #85, .T. ) ;
#213 = FACE_OUTER_BOUND ( 'NONE', #109, .T. ) ;
#214 = VECTOR ( 'NONE', #25, 1000.000000000000000 ) ;
#215 = ADVANCED_FACE ( 'NONE', ( #122, #219 ), #243, .T. ) ;
#216 = DIRECTION ( 'NONE',  ( -1.000000000000000000, 0.000000000000000000, 0.000000000000000000 ) ) ;
#217 = DIRECTION ( 'NONE',  ( -0.000000000000000000, -0.000000000000000000, -1.000000000000000000 ) ) ;
#218 = AXIS2_PLACEMENT_3D ( 'NONE', #205, #98, #174 ) ;
#219 = FACE_OUTER_BOUND ( 'NONE', #1, .T. ) ;
#220 = CIRCLE ( 'NONE', #305, 5.000000000000000000 ) ;
#221 = DIRECTION ( 'NONE',  ( 1.000000000000000000, 0.000000000000000000, -0.000000000000000000 ) ) ;
#222 = APPROVAL_STATUS ( 'not_yet_approved' ) ;
#223 = CC_DESIGN_APPROVAL ( #75, ( #258 ) ) ;
#224 = APPLICATION_CONTEXT ( 'configuration controlled 3d designs of mechanical parts and assemblies' ) ;
#225 = SECURITY_CLASSIFICATION_LEVEL ( 'unclassified' ) ;
#226 = EDGE_CURVE ( 'NONE', #89, #307, #196, .T. ) ;
#227 = APPROVAL_ROLE ( '' ) ;
#228 =( NAMED_UNIT ( * ) SI_UNIT ( $, .STERADIAN. ) SOLID_ANGLE_UNIT ( ) );
#229 = ORIENTED_EDGE ( 'NONE', *, *, #29, .F. ) ;
#230 = AXIS2_PLACEMENT_3D ( 'NONE', #270, #217, #216 ) ;
#231 = CALENDAR_DATE ( 2022, 7, 7 ) ;
#232 = ORIENTED_EDGE ( 'NONE', *, *, #10, .T. ) ;
#233 = EDGE_CURVE ( 'NONE', #300, #119, #302, .T. ) ;
#234 = CARTESIAN_POINT ( 'NONE',  ( 5.200000000000000178, 0.000000000000000000, 5.000000000000005329 ) ) ;
#235 = AXIS2_PLACEMENT_3D ( 'NONE', #271, #190, #52 ) ;
#236 = CARTESIAN_POINT ( 'NONE',  ( 0.000000000000000000, 0.000000000000000000, 0.000000000000000000 ) ) ;
#237 = DIRECTION ( 'NONE',  ( 1.000000000000000000, 0.000000000000000000, 0.000000000000000000 ) ) ;
#238 = CARTESIAN_POINT ( 'NONE',  ( 0.000000000000000000, 0.000000000000000000, 5.000000000000000000 ) ) ;
#239 = AXIS2_PLACEMENT_3D ( 'NONE', #272, #246, #296 ) ;
#240 = CYLINDRICAL_SURFACE ( 'NONE', #218, 8.000000000000000000 ) ;
#241 = APPLICATION_CONTEXT ( 'configuration controlled 3d designs of mechanical parts and assemblies' ) ;
#242 =( NAMED_UNIT ( * ) PLANE_ANGLE_UNIT ( ) SI_UNIT ( $, .RADIAN. ) );
#243 = PLANE ( 'NONE',  #245 ) ;
#244 = DIRECTION ( 'NONE',  ( 1.000000000000000000, 0.000000000000000000, 0.000000000000000000 ) ) ;
#245 = AXIS2_PLACEMENT_3D ( 'NONE', #74, #33, #221 ) ;
#246 = DIRECTION ( 'NONE',  ( 0.000000000000000000, -1.000000000000000000, 0.000000000000000000 ) ) ;
#247 = EDGE_CURVE ( 'NONE', #162, #87, #273, .T. ) ;
#248 = AXIS2_PLACEMENT_3D ( 'NONE', #160, #22, #287 ) ;
#249 = AXIS2_PLACEMENT_3D ( 'NONE', #71, #209, #167 ) ;
#250 = CALENDAR_DATE ( 2022, 7, 7 ) ;
#251 = PERSON_AND_ORGANIZATION ( #124, #136 ) ;
#252 = CC_DESIGN_APPROVAL ( #206, ( #76 ) ) ;
#253 = APPLICATION_PROTOCOL_DEFINITION ( 'international standard', 'config_control_design', 1994, #241 ) ;
#254 = EDGE_LOOP ( 'NONE', ( #284, #132, #66, #139 ) ) ;
#255 = CIRCLE ( 'NONE', #133, 5.000000000000000000 ) ;
#256 = ORIENTED_EDGE ( 'NONE', *, *, #15, .F. ) ;
#257 = COORDINATED_UNIVERSAL_TIME_OFFSET ( 1, 0, .AHEAD. ) ;
#258 = PRODUCT_DEFINITION_FORMATION_WITH_SPECIFIED_SOURCE ( 'LIBOVOLNÝ', '', #289, .NOT_KNOWN. ) ;
#259 = ORIENTED_EDGE ( 'NONE', *, *, #130, .T. ) ;
#260 = DIRECTION ( 'NONE',  ( 1.000000000000000000, 0.000000000000000000, 0.000000000000000000 ) ) ;
#261 = PLANE ( 'NONE',  #45 ) ;
#262 = AXIS2_PLACEMENT_3D ( 'NONE', #169, #194, #77 ) ;
#263 = CC_DESIGN_PERSON_AND_ORGANIZATION_ASSIGNMENT ( #135, #137, ( #63 ) ) ;
#264 = VERTEX_POINT ( 'NONE', #32 ) ;
#265 = ORIENTED_EDGE ( 'NONE', *, *, #26, .T. ) ;
#266 = EDGE_LOOP ( 'NONE', ( #6, #107, #259, #154 ) ) ;
#267 = LOCAL_TIME ( 14, 28, 17.00000000000000000, #82 ) ;
#268 = CC_DESIGN_PERSON_AND_ORGANIZATION_ASSIGNMENT ( #14, #278, ( #258 ) ) ;
#269 = VECTOR ( 'NONE', #185, 1000.000000000000000 ) ;
#270 = CARTESIAN_POINT ( 'NONE',  ( 0.000000000000000000, 0.000000000000000000, 165.0000000000000000 ) ) ;
#271 = CARTESIAN_POINT ( 'NONE',  ( 0.000000000000000000, 0.000000000000000000, 5.000000000000000000 ) ) ;
#272 = CARTESIAN_POINT ( 'NONE',  ( 5.200000000000000178, 0.000000000000000000, 5.200000000000009948 ) ) ;
#273 = CIRCLE ( 'NONE', #60, 5.000000000000000000 ) ;
#274 = DIRECTION ( 'NONE',  ( 1.000000000000000000, 0.000000000000000000, 0.000000000000000000 ) ) ;
#275 = VECTOR ( 'NONE', #48, 1000.000000000000000 ) ;
#276 = SHAPE_DEFINITION_REPRESENTATION ( #294, #8 ) ;
#277 = ORIENTED_EDGE ( 'NONE', *, *, #103, .F. ) ;
#278 = PERSON_AND_ORGANIZATION_ROLE ( 'design_supplier' ) ;
#279 =( GEOMETRIC_REPRESENTATION_CONTEXT ( 3 ) GLOBAL_UNCERTAINTY_ASSIGNED_CONTEXT ( ( #53 ) ) GLOBAL_UNIT_ASSIGNED_CONTEXT ( ( #50, #242, #228 ) ) REPRESENTATION_CONTEXT ( 'NONE', 'WORKASPACE' ) );
#280 = EDGE_LOOP ( 'NONE', ( #229, #44, #140, #59 ) ) ;
#281 = ORIENTED_EDGE ( 'NONE', *, *, #106, .T. ) ;
#282 = PERSON_AND_ORGANIZATION_ROLE ( 'creator' ) ;
#283 = VERTEX_POINT ( 'NONE', #293 ) ;
#284 = ORIENTED_EDGE ( 'NONE', *, *, #90, .F. ) ;
#285 = DIRECTION ( 'NONE',  ( 0.000000000000000000, 0.000000000000000000, 1.000000000000000000 ) ) ;
#286 = ADVANCED_FACE ( 'NONE', ( #104 ), #125, .T. ) ;
#287 = DIRECTION ( 'NONE',  ( -1.000000000000000000, 1.224646799147353454E-16, 0.000000000000000000 ) ) ;
#288 = CARTESIAN_POINT ( 'NONE',  ( 5.000000000000000000, 6.123233995736766282E-16, 165.0000000000000000 ) ) ;
#289 = PRODUCT ( '71f0', '71f0', '', ( #156 ) ) ;
#290 = CIRCLE ( 'NONE', #11, 8.000000000000000000 ) ;
#291 = LINE ( 'NONE', #144, #214 ) ;
#292 = DIRECTION ( 'NONE',  ( 0.000000000000000000, 0.000000000000000000, 1.000000000000000000 ) ) ;
#293 = CARTESIAN_POINT ( 'NONE',  ( -8.000000000000000000, 0.000000000000000000, 0.000000000000000000 ) ) ;
#294 = PRODUCT_DEFINITION_SHAPE ( 'NONE', 'NONE',  #63 ) ;
#295 = CARTESIAN_POINT ( 'NONE',  ( 5.000000000000000000, 6.123233995736766282E-16, 5.200000000000009948 ) ) ;
#296 = DIRECTION ( 'NONE',  ( 0.000000000000000000, 0.000000000000000000, -1.000000000000000000 ) ) ;
#297 = APPROVAL_PERSON_ORGANIZATION ( #251, #75, #20 ) ;
#298 = CARTESIAN_POINT ( 'NONE',  ( 0.000000000000000000, 0.000000000000000000, 5.200000000000009948 ) ) ;
#299 = CALENDAR_DATE ( 2022, 7, 7 ) ;
#300 = VERTEX_POINT ( 'NONE', #27 ) ;
#301 = ORIENTED_EDGE ( 'NONE', *, *, #166, .T. ) ;
#302 = CIRCLE ( 'NONE', #55, 5.000000000000000000 ) ;
#303 = APPROVAL_STATUS ( 'not_yet_approved' ) ;
#304 = ORIENTED_EDGE ( 'NONE', *, *, #26, .F. ) ;
#305 = AXIS2_PLACEMENT_3D ( 'NONE', #165, #94, #260 ) ;
#306 = DATE_AND_TIME ( #180, #211 ) ;
#307 = VERTEX_POINT ( 'NONE', #7 ) ;
ENDSEC;
END-ISO-10303-21;
