ISO-10303-21;
HEADER;
FILE_DESCRIPTION (( 'STEP AP203' ),
    '1' );
FILE_NAME ('ca76.STEP',
    '2022-06-30T20:26:18',
    ( '' ),
    ( '' ),
    'SwSTEP 2.0',
    'SolidWorks 2019',
    '' );
FILE_SCHEMA (( 'CONFIG_CONTROL_DESIGN' ));
ENDSEC;

DATA;
#1 = VECTOR ( 'NONE', #124, 1000.000000000000000 ) ;
#2 = DIRECTION ( 'NONE',  ( 0.000000000000000000, 0.000000000000000000, 1.000000000000000000 ) ) ;
#3 = CARTESIAN_POINT ( 'NONE',  ( 2.000000000000000000, 2.449293598294706414E-16, 2.000000000000000000 ) ) ;
#4 = EDGE_CURVE ( 'NONE', #17, #118, #68, .T. ) ;
#5 = CARTESIAN_POINT ( 'NONE',  ( 0.000000000000000000, 0.000000000000000000, 0.000000000000000000 ) ) ;
#6 = APPLICATION_PROTOCOL_DEFINITION ( 'international standard', 'config_control_design', 1994, #100 ) ;
#7 = CARTESIAN_POINT ( 'NONE',  ( -2.000000000000000000, 0.000000000000000000, 2.000000000000000000 ) ) ;
#8 = CIRCLE ( 'NONE', #199, 1.000000000000000000 ) ;
#9 = APPROVAL_DATE_TIME ( #189, #177 ) ;
#10 = DIRECTION ( 'NONE',  ( -1.000000000000000000, 0.000000000000000000, 0.000000000000000000 ) ) ;
#11 = APPROVAL_ROLE ( '' ) ;
#12 = DIRECTION ( 'NONE',  ( -0.000000000000000000, -0.000000000000000000, -1.000000000000000000 ) ) ;
#13 = SECURITY_CLASSIFICATION_LEVEL ( 'unclassified' ) ;
#14 = VERTEX_POINT ( 'NONE', #166 ) ;
#15 = APPROVAL_PERSON_ORGANIZATION ( #71, #187, #11 ) ;
#16 = PRODUCT_DEFINITION_SHAPE ( 'NONE', 'NONE',  #217 ) ;
#17 = VERTEX_POINT ( 'NONE', #241 ) ;
#18 = CIRCLE ( 'NONE', #52, 2.000000000000000000 ) ;
#19 = AXIS2_PLACEMENT_3D ( 'NONE', #38, #145, #185 ) ;
#20 = AXIS2_PLACEMENT_3D ( 'NONE', #47, #249, #114 ) ;
#21 = DIRECTION ( 'NONE',  ( 1.000000000000000000, 0.000000000000000000, 0.000000000000000000 ) ) ;
#22 = FACE_BOUND ( 'NONE', #213, .T. ) ;
#23 = FACE_OUTER_BOUND ( 'NONE', #196, .T. ) ;
#24 = FACE_OUTER_BOUND ( 'NONE', #134, .T. ) ;
#25 = APPROVAL_PERSON_ORGANIZATION ( #92, #157, #225 ) ;
#26 = COORDINATED_UNIVERSAL_TIME_OFFSET ( 1, 0, .AHEAD. ) ;
#27 = DATE_TIME_ROLE ( 'creation_date' ) ;
#28 = DIRECTION ( 'NONE',  ( -0.000000000000000000, -0.000000000000000000, -1.000000000000000000 ) ) ;
#29 = CARTESIAN_POINT ( 'NONE',  ( 0.000000000000000000, 0.000000000000000000, 102.0000000000000142 ) ) ;
#30 = EDGE_LOOP ( 'NONE', ( #115, #98, #36, #104 ) ) ;
#31 = DATE_AND_TIME ( #89, #101 ) ;
#32 = ORIENTED_EDGE ( 'NONE', *, *, #111, .T. ) ;
#33 = CC_DESIGN_DATE_AND_TIME_ASSIGNMENT ( #31, #27, ( #217 ) ) ;
#34 = ORIENTED_EDGE ( 'NONE', *, *, #138, .T. ) ;
#35 = AXIS2_PLACEMENT_3D ( 'NONE', #140, #162, #143 ) ;
#36 = ORIENTED_EDGE ( 'NONE', *, *, #144, .T. ) ;
#37 = CC_DESIGN_DATE_AND_TIME_ASSIGNMENT ( #110, #130, ( #240 ) ) ;
#38 = CARTESIAN_POINT ( 'NONE',  ( 0.000000000000000000, 0.000000000000000000, 102.0000000000000142 ) ) ;
#39 = AXIS2_PLACEMENT_3D ( 'NONE', #42, #2, #86 ) ;
#40 = CARTESIAN_POINT ( 'NONE',  ( 2.000000000000000000, 2.449293598294706414E-16, 2.000000000000000000 ) ) ;
#41 = ADVANCED_FACE ( 'NONE', ( #22, #219 ), #65, .T. ) ;
#42 = CARTESIAN_POINT ( 'NONE',  ( 0.000000000000000000, 0.000000000000000000, 0.000000000000000000 ) ) ;
#43 = CARTESIAN_POINT ( 'NONE',  ( -1.000000000000000000, 0.000000000000000000, 102.0000000000000142 ) ) ;
#44 = DIRECTION ( 'NONE',  ( -0.000000000000000000, -0.000000000000000000, -1.000000000000000000 ) ) ;
#45 = CC_DESIGN_APPROVAL ( #187, ( #240 ) ) ;
#46 = DATE_AND_TIME ( #195, #236 ) ;
#47 = CARTESIAN_POINT ( 'NONE',  ( 0.000000000000000000, 0.000000000000000000, 2.000000000000000000 ) ) ;
#48 = APPROVAL_STATUS ( 'not_yet_approved' ) ;
#49 = CARTESIAN_POINT ( 'NONE',  ( 2.000000000000000000, 2.449293598294706414E-16, 0.000000000000000000 ) ) ;
#50 = DATE_AND_TIME ( #116, #142 ) ;
#51 =( LENGTH_UNIT ( ) NAMED_UNIT ( * ) SI_UNIT ( .MILLI., .METRE. ) );
#52 = AXIS2_PLACEMENT_3D ( 'NONE', #5, #107, #21 ) ;
#53 = ADVANCED_FACE ( 'NONE', ( #23 ), #202, .T. ) ;
#54 = CALENDAR_DATE ( 2022, 30, 6 ) ;
#55 = ORIENTED_EDGE ( 'NONE', *, *, #103, .T. ) ;
#56 = ADVANCED_FACE ( 'NONE', ( #24 ), #238, .T. ) ;
#57 = ORIENTED_EDGE ( 'NONE', *, *, #102, .T. ) ;
#58 = ORIENTED_EDGE ( 'NONE', *, *, #93, .F. ) ;
#59 = PRODUCT ( 'ca76', 'ca76', '', ( #188 ) ) ;
#60 = DIRECTION ( 'NONE',  ( -0.000000000000000000, -0.000000000000000000, -1.000000000000000000 ) ) ;
#61 = EDGE_CURVE ( 'NONE', #97, #156, #117, .T. ) ;
#62 = DIRECTION ( 'NONE',  ( 0.000000000000000000, 0.000000000000000000, 1.000000000000000000 ) ) ;
#63 = CIRCLE ( 'NONE', #39, 2.000000000000000000 ) ;
#64 = DIRECTION ( 'NONE',  ( 1.000000000000000000, 0.000000000000000000, 0.000000000000000000 ) ) ;
#65 = PLANE ( 'NONE',  #152 ) ;
#66 = CALENDAR_DATE ( 2022, 30, 6 ) ;
#67 = PERSON_AND_ORGANIZATION_ROLE ( 'design_owner' ) ;
#68 = CIRCLE ( 'NONE', #123, 2.000000000000000000 ) ;
#69 = APPROVAL_DATE_TIME ( #50, #187 ) ;
#70 =( NAMED_UNIT ( * ) PLANE_ANGLE_UNIT ( ) SI_UNIT ( $, .RADIAN. ) );
#71 = PERSON_AND_ORGANIZATION ( #197, #210 ) ;
#72 = PLANE ( 'NONE',  #220 ) ;
#73 = EDGE_CURVE ( 'NONE', #232, #135, #8, .T. ) ;
#74 = PERSON_AND_ORGANIZATION_ROLE ( 'classification_officer' ) ;
#75 = AXIS2_PLACEMENT_3D ( 'NONE', #29, #12, #10 ) ;
#76 = COORDINATED_UNIVERSAL_TIME_OFFSET ( 1, 0, .AHEAD. ) ;
#77 = ORIENTED_EDGE ( 'NONE', *, *, #73, .T. ) ;
#78 = ORIENTED_EDGE ( 'NONE', *, *, #120, .T. ) ;
#79 = CC_DESIGN_SECURITY_CLASSIFICATION ( #240, ( #244 ) ) ;
#80 = ORIENTED_EDGE ( 'NONE', *, *, #144, .F. ) ;
#81 = CC_DESIGN_PERSON_AND_ORGANIZATION_ASSIGNMENT ( #154, #168, ( #217 ) ) ;
#82 = DIRECTION ( 'NONE',  ( 1.000000000000000000, 0.000000000000000000, 0.000000000000000000 ) ) ;
#83 = DIRECTION ( 'NONE',  ( 1.000000000000000000, 0.000000000000000000, -0.000000000000000000 ) ) ;
#84 = CARTESIAN_POINT ( 'NONE',  ( 1.000000000000000000, 1.224646799147353207E-16, 102.0000000000000142 ) ) ;
#85 = VECTOR ( 'NONE', #28, 1000.000000000000000 ) ;
#86 = DIRECTION ( 'NONE',  ( 1.000000000000000000, 0.000000000000000000, 0.000000000000000000 ) ) ;
#87 = UNCERTAINTY_MEASURE_WITH_UNIT (LENGTH_MEASURE( 1.000000000000000082E-05 ), #51, 'distance_accuracy_value', 'NONE');
#88 = CC_DESIGN_PERSON_AND_ORGANIZATION_ASSIGNMENT ( #133, #74, ( #240 ) ) ;
#89 = CALENDAR_DATE ( 2022, 30, 6 ) ;
#90 = CARTESIAN_POINT ( 'NONE',  ( 0.000000000000000000, 0.000000000000000000, 2.000000000000000000 ) ) ;
#91 = CIRCLE ( 'NONE', #203, 1.000000000000000000 ) ;
#92 = PERSON_AND_ORGANIZATION ( #197, #210 ) ;
#93 = EDGE_CURVE ( 'NONE', #118, #180, #108, .T. ) ;
#94 = FACE_OUTER_BOUND ( 'NONE', #254, .T. ) ;
#95 = COORDINATED_UNIVERSAL_TIME_OFFSET ( 1, 0, .AHEAD. ) ;
#96 = DIRECTION ( 'NONE',  ( 1.000000000000000000, 0.000000000000000000, 0.000000000000000000 ) ) ;
#97 = VERTEX_POINT ( 'NONE', #205 ) ;
#98 = ORIENTED_EDGE ( 'NONE', *, *, #103, .F. ) ;
#99 = ORIENTED_EDGE ( 'NONE', *, *, #235, .F. ) ;
#100 = APPLICATION_CONTEXT ( 'configuration controlled 3d designs of mechanical parts and assemblies' ) ;
#101 = LOCAL_TIME ( 22, 26, 18.00000000000000000, #26 ) ;
#102 = EDGE_CURVE ( 'NONE', #14, #180, #18, .T. ) ;
#103 = EDGE_CURVE ( 'NONE', #135, #232, #91, .T. ) ;
#104 = ORIENTED_EDGE ( 'NONE', *, *, #61, .T. ) ;
#105 = CC_DESIGN_APPROVAL ( #157, ( #244 ) ) ;
#106 = DIRECTION ( 'NONE',  ( 0.000000000000000000, 0.000000000000000000, 1.000000000000000000 ) ) ;
#107 = DIRECTION ( 'NONE',  ( 0.000000000000000000, 0.000000000000000000, 1.000000000000000000 ) ) ;
#108 = LINE ( 'NONE', #40, #1 ) ;
#109 = DIRECTION ( 'NONE',  ( 0.000000000000000000, 0.000000000000000000, 1.000000000000000000 ) ) ;
#110 = DATE_AND_TIME ( #66, #190 ) ;
#111 = EDGE_CURVE ( 'NONE', #180, #14, #63, .T. ) ;
#112 = PERSON_AND_ORGANIZATION_ROLE ( 'design_supplier' ) ;
#113 = APPROVAL_ROLE ( '' ) ;
#114 = DIRECTION ( 'NONE',  ( -1.000000000000000000, 0.000000000000000000, 0.000000000000000000 ) ) ;
#115 = ORIENTED_EDGE ( 'NONE', *, *, #120, .F. ) ;
#116 = CALENDAR_DATE ( 2022, 30, 6 ) ;
#117 = CIRCLE ( 'NONE', #251, 1.000000000000000000 ) ;
#118 = VERTEX_POINT ( 'NONE', #3 ) ;
#119 = DIRECTION ( 'NONE',  ( 0.000000000000000000, 0.000000000000000000, 1.000000000000000000 ) ) ;
#120 = EDGE_CURVE ( 'NONE', #232, #156, #182, .T. ) ;
#121 = CC_DESIGN_APPROVAL ( #177, ( #217 ) ) ;
#122 = CARTESIAN_POINT ( 'NONE',  ( 0.000000000000000000, 0.000000000000000000, 102.0000000000000142 ) ) ;
#123 = AXIS2_PLACEMENT_3D ( 'NONE', #214, #119, #221 ) ;
#124 = DIRECTION ( 'NONE',  ( -0.000000000000000000, -0.000000000000000000, -1.000000000000000000 ) ) ;
#125 = DIRECTION ( 'NONE',  ( 1.000000000000000000, 0.000000000000000000, 0.000000000000000000 ) ) ;
#126 = CARTESIAN_POINT ( 'NONE',  ( 0.000000000000000000, 0.000000000000000000, 2.000000000000000000 ) ) ;
#127 = CC_DESIGN_PERSON_AND_ORGANIZATION_ASSIGNMENT ( #167, #67, ( #59 ) ) ;
#128 = CLOSED_SHELL ( 'NONE', ( #56, #193, #215, #41, #255, #159, #53 ) ) ;
#129 = LINE ( 'NONE', #7, #85 ) ;
#130 = DATE_TIME_ROLE ( 'classification_date' ) ;
#131 = CYLINDRICAL_SURFACE ( 'NONE', #20, 2.000000000000000000 ) ;
#132 = CARTESIAN_POINT ( 'NONE',  ( 0.000000000000000000, 0.000000000000000000, 0.000000000000000000 ) ) ;
#133 = PERSON_AND_ORGANIZATION ( #197, #210 ) ;
#134 = EDGE_LOOP ( 'NONE', ( #179, #78, #194, #80 ) ) ;
#135 = VERTEX_POINT ( 'NONE', #43 ) ;
#136 = CIRCLE ( 'NONE', #216, 1.000000000000000000 ) ;
#137 = ORIENTED_EDGE ( 'NONE', *, *, #183, .F. ) ;
#138 = EDGE_CURVE ( 'NONE', #118, #17, #139, .T. ) ;
#139 = CIRCLE ( 'NONE', #186, 2.000000000000000000 ) ;
#140 = CARTESIAN_POINT ( 'NONE',  ( 0.000000000000000000, 0.000000000000000000, 102.0000000000000142 ) ) ;
#141 = DIRECTION ( 'NONE',  ( 0.000000000000000000, 0.000000000000000000, 1.000000000000000000 ) ) ;
#142 = LOCAL_TIME ( 22, 26, 18.00000000000000000, #95 ) ;
#143 = DIRECTION ( 'NONE',  ( 1.000000000000000000, 0.000000000000000000, -0.000000000000000000 ) ) ;
#144 = EDGE_CURVE ( 'NONE', #135, #97, #206, .T. ) ;
#145 = DIRECTION ( 'NONE',  ( -0.000000000000000000, -0.000000000000000000, -1.000000000000000000 ) ) ;
#146 = DESIGN_CONTEXT ( 'detailed design', #155, 'design' ) ;
#147 = COORDINATED_UNIVERSAL_TIME_OFFSET ( 1, 0, .AHEAD. ) ;
#148 = CARTESIAN_POINT ( 'NONE',  ( 1.000000000000000000, 1.224646799147353207E-16, 2.000000000000000000 ) ) ;
#149 = CYLINDRICAL_SURFACE ( 'NONE', #176, 2.000000000000000000 ) ;
#150 = APPROVAL_DATE_TIME ( #46, #157 ) ;
#151 = DIRECTION ( 'NONE',  ( 1.000000000000000000, 0.000000000000000000, 0.000000000000000000 ) ) ;
#152 = AXIS2_PLACEMENT_3D ( 'NONE', #126, #204, #83 ) ;
#153 = ORIENTED_EDGE ( 'NONE', *, *, #235, .T. ) ;
#154 = PERSON_AND_ORGANIZATION ( #197, #210 ) ;
#155 = APPLICATION_CONTEXT ( 'configuration controlled 3d designs of mechanical parts and assemblies' ) ;
#156 = VERTEX_POINT ( 'NONE', #148 ) ;
#157 = APPROVAL ( #230, 'NEURÈENÝ' ) ;
#158 = ORIENTED_EDGE ( 'NONE', *, *, #4, .F. ) ;
#159 = ADVANCED_FACE ( 'NONE', ( #227 ), #175, .T. ) ;
#160 = ORIENTED_EDGE ( 'NONE', *, *, #4, .T. ) ;
#161 = DIRECTION ( 'NONE',  ( -0.000000000000000000, -0.000000000000000000, -1.000000000000000000 ) ) ;
#162 = DIRECTION ( 'NONE',  ( 0.000000000000000000, 0.000000000000000000, 1.000000000000000000 ) ) ;
#163 = CARTESIAN_POINT ( 'NONE',  ( 0.000000000000000000, 0.000000000000000000, 2.000000000000000000 ) ) ;
#164 = APPROVAL_PERSON_ORGANIZATION ( #174, #177, #113 ) ;
#165 = AXIS2_PLACEMENT_3D ( 'NONE', #191, #109, #96 ) ;
#166 = CARTESIAN_POINT ( 'NONE',  ( -2.000000000000000000, 0.000000000000000000, 0.000000000000000000 ) ) ;
#167 = PERSON_AND_ORGANIZATION ( #197, #210 ) ;
#168 = PERSON_AND_ORGANIZATION_ROLE ( 'creator' ) ;
#169 =( NAMED_UNIT ( * ) SI_UNIT ( $, .STERADIAN. ) SOLID_ANGLE_UNIT ( ) );
#170 = PERSON_AND_ORGANIZATION_ROLE ( 'creator' ) ;
#171 = VECTOR ( 'NONE', #60, 1000.000000000000000 ) ;
#172 = FACE_OUTER_BOUND ( 'NONE', #212, .T. ) ;
#173 = CARTESIAN_POINT ( 'NONE',  ( 0.000000000000000000, 0.000000000000000000, 2.000000000000000000 ) ) ;
#174 = PERSON_AND_ORGANIZATION ( #197, #210 ) ;
#175 = CYLINDRICAL_SURFACE ( 'NONE', #75, 1.000000000000000000 ) ;
#176 = AXIS2_PLACEMENT_3D ( 'NONE', #173, #44, #209 ) ;
#177 = APPROVAL ( #48, 'NEURÈENÝ' ) ;
#178 = ORIENTED_EDGE ( 'NONE', *, *, #111, .F. ) ;
#179 = ORIENTED_EDGE ( 'NONE', *, *, #73, .F. ) ;
#180 = VERTEX_POINT ( 'NONE', #49 ) ;
#181 = LOCAL_TIME ( 22, 26, 18.00000000000000000, #147 ) ;
#182 = LINE ( 'NONE', #84, #207 ) ;
#183 = EDGE_CURVE ( 'NONE', #156, #97, #136, .T. ) ;
#184 = DIRECTION ( 'NONE',  ( 1.000000000000000000, 0.000000000000000000, 0.000000000000000000 ) ) ;
#185 = DIRECTION ( 'NONE',  ( -1.000000000000000000, 0.000000000000000000, 0.000000000000000000 ) ) ;
#186 = AXIS2_PLACEMENT_3D ( 'NONE', #163, #239, #125 ) ;
#187 = APPROVAL ( #208, 'NEURÈENÝ' ) ;
#188 = MECHANICAL_CONTEXT ( 'NONE', #100, 'mechanical' ) ;
#189 = DATE_AND_TIME ( #54, #181 ) ;
#190 = LOCAL_TIME ( 22, 26, 18.00000000000000000, #246 ) ;
#191 = CARTESIAN_POINT ( 'NONE',  ( 0.000000000000000000, 0.000000000000000000, 0.000000000000000000 ) ) ;
#192 = PERSON_AND_ORGANIZATION ( #197, #210 ) ;
#193 = ADVANCED_FACE ( 'NONE', ( #226 ), #131, .T. ) ;
#194 = ORIENTED_EDGE ( 'NONE', *, *, #183, .T. ) ;
#195 = CALENDAR_DATE ( 2022, 30, 6 ) ;
#196 = EDGE_LOOP ( 'NONE', ( #55, #77 ) ) ;
#197 = PERSON ( 'NEURÈENÝ', 'NEURÈENÝ', 'NEURÈENÝ', ('NEURÈENÝ'), ('NEURÈENÝ'), ('NEURÈENÝ') ) ;
#198 = ORIENTED_EDGE ( 'NONE', *, *, #138, .F. ) ;
#199 = AXIS2_PLACEMENT_3D ( 'NONE', #218, #62, #64 ) ;
#200 = MANIFOLD_SOLID_BREP ( 'Pøidat vysunutím3', #128 ) ;
#201 = ORIENTED_EDGE ( 'NONE', *, *, #93, .T. ) ;
#202 = PLANE ( 'NONE',  #35 ) ;
#203 = AXIS2_PLACEMENT_3D ( 'NONE', #122, #106, #184 ) ;
#204 = DIRECTION ( 'NONE',  ( 0.000000000000000000, 0.000000000000000000, 1.000000000000000000 ) ) ;
#205 = CARTESIAN_POINT ( 'NONE',  ( -1.000000000000000000, 0.000000000000000000, 2.000000000000000000 ) ) ;
#206 = LINE ( 'NONE', #237, #171 ) ;
#207 = VECTOR ( 'NONE', #161, 1000.000000000000000 ) ;
#208 = APPROVAL_STATUS ( 'not_yet_approved' ) ;
#209 = DIRECTION ( 'NONE',  ( -1.000000000000000000, 0.000000000000000000, 0.000000000000000000 ) ) ;
#210 = ORGANIZATION ( 'NEURÈENÝ', 'NEURÈENÝ', '' ) ;
#211 = APPLICATION_PROTOCOL_DEFINITION ( 'international standard', 'config_control_design', 1994, #155 ) ;
#212 = EDGE_LOOP ( 'NONE', ( #250, #178 ) ) ;
#213 = EDGE_LOOP ( 'NONE', ( #253, #137 ) ) ;
#214 = CARTESIAN_POINT ( 'NONE',  ( 0.000000000000000000, 0.000000000000000000, 2.000000000000000000 ) ) ;
#215 = ADVANCED_FACE ( 'NONE', ( #94 ), #149, .T. ) ;
#216 = AXIS2_PLACEMENT_3D ( 'NONE', #90, #242, #151 ) ;
#217 = PRODUCT_DEFINITION ( 'NEZNÁMÝ', '', #244, #146 ) ;
#218 = CARTESIAN_POINT ( 'NONE',  ( 0.000000000000000000, 0.000000000000000000, 102.0000000000000142 ) ) ;
#219 = FACE_OUTER_BOUND ( 'NONE', #231, .T. ) ;
#220 = AXIS2_PLACEMENT_3D ( 'NONE', #132, #245, #228 ) ;
#221 = DIRECTION ( 'NONE',  ( 1.000000000000000000, 0.000000000000000000, 0.000000000000000000 ) ) ;
#222 = PRODUCT_RELATED_PRODUCT_CATEGORY ( 'detail', '', ( #59 ) ) ;
#223 = CARTESIAN_POINT ( 'NONE',  ( 0.000000000000000000, 0.000000000000000000, 2.000000000000000000 ) ) ;
#224 = CC_DESIGN_PERSON_AND_ORGANIZATION_ASSIGNMENT ( #243, #170, ( #244 ) ) ;
#225 = APPROVAL_ROLE ( '' ) ;
#226 = FACE_OUTER_BOUND ( 'NONE', #234, .T. ) ;
#227 = FACE_OUTER_BOUND ( 'NONE', #30, .T. ) ;
#228 = DIRECTION ( 'NONE',  ( 1.000000000000000000, 0.000000000000000000, -0.000000000000000000 ) ) ;
#229 =( GEOMETRIC_REPRESENTATION_CONTEXT ( 3 ) GLOBAL_UNCERTAINTY_ASSIGNED_CONTEXT ( ( #87 ) ) GLOBAL_UNIT_ASSIGNED_CONTEXT ( ( #51, #70, #169 ) ) REPRESENTATION_CONTEXT ( 'NONE', 'WORKASPACE' ) );
#230 = APPROVAL_STATUS ( 'not_yet_approved' ) ;
#231 = EDGE_LOOP ( 'NONE', ( #160, #34 ) ) ;
#232 = VERTEX_POINT ( 'NONE', #247 ) ;
#233 = CC_DESIGN_PERSON_AND_ORGANIZATION_ASSIGNMENT ( #192, #112, ( #244 ) ) ;
#234 = EDGE_LOOP ( 'NONE', ( #198, #201, #32, #99 ) ) ;
#235 = EDGE_CURVE ( 'NONE', #17, #14, #129, .T. ) ;
#236 = LOCAL_TIME ( 22, 26, 18.00000000000000000, #76 ) ;
#237 = CARTESIAN_POINT ( 'NONE',  ( -1.000000000000000000, 0.000000000000000000, 102.0000000000000142 ) ) ;
#238 = CYLINDRICAL_SURFACE ( 'NONE', #19, 1.000000000000000000 ) ;
#239 = DIRECTION ( 'NONE',  ( 0.000000000000000000, 0.000000000000000000, 1.000000000000000000 ) ) ;
#240 = SECURITY_CLASSIFICATION ( '', '', #13 ) ;
#241 = CARTESIAN_POINT ( 'NONE',  ( -2.000000000000000000, 0.000000000000000000, 2.000000000000000000 ) ) ;
#242 = DIRECTION ( 'NONE',  ( 0.000000000000000000, 0.000000000000000000, 1.000000000000000000 ) ) ;
#243 = PERSON_AND_ORGANIZATION ( #197, #210 ) ;
#244 = PRODUCT_DEFINITION_FORMATION_WITH_SPECIFIED_SOURCE ( 'LIBOVOLNÝ', '', #59, .NOT_KNOWN. ) ;
#245 = DIRECTION ( 'NONE',  ( 0.000000000000000000, 0.000000000000000000, 1.000000000000000000 ) ) ;
#246 = COORDINATED_UNIVERSAL_TIME_OFFSET ( 1, 0, .AHEAD. ) ;
#247 = CARTESIAN_POINT ( 'NONE',  ( 1.000000000000000000, 1.224646799147353207E-16, 102.0000000000000142 ) ) ;
#248 = SHAPE_DEFINITION_REPRESENTATION ( #16, #252 ) ;
#249 = DIRECTION ( 'NONE',  ( -0.000000000000000000, -0.000000000000000000, -1.000000000000000000 ) ) ;
#250 = ORIENTED_EDGE ( 'NONE', *, *, #102, .F. ) ;
#251 = AXIS2_PLACEMENT_3D ( 'NONE', #223, #141, #82 ) ;
#252 = ADVANCED_BREP_SHAPE_REPRESENTATION ( 'ca76', ( #200, #165 ), #229 ) ;
#253 = ORIENTED_EDGE ( 'NONE', *, *, #61, .F. ) ;
#254 = EDGE_LOOP ( 'NONE', ( #58, #158, #153, #57 ) ) ;
#255 = ADVANCED_FACE ( 'NONE', ( #172 ), #72, .F. ) ;
ENDSEC;
END-ISO-10303-21;
