ISO-10303-21;
HEADER;
FILE_DESCRIPTION (( 'STEP AP203' ),
    '1' );
FILE_NAME ('f2b6.STEP',
    '2023-02-12T11:33:11',
    ( '' ),
    ( '' ),
    'SwSTEP 2.0',
    'SolidWorks 2019',
    '' );
FILE_SCHEMA (( 'CONFIG_CONTROL_DESIGN' ));
ENDSEC;

DATA;
#1 = APPROVAL_STATUS ( 'not_yet_approved' ) ;
#2 = PERSON_AND_ORGANIZATION_ROLE ( 'creator' ) ;
#3 = ORIENTED_EDGE ( 'NONE', *, *, #101, .T. ) ;
#4 = ADVANCED_FACE ( 'NONE', ( #39 ), #10, .T. ) ;
#5 = ADVANCED_FACE ( 'NONE', ( #163 ), #62, .T. ) ;
#6 = AXIS2_PLACEMENT_3D ( 'NONE', #161, #249, #188 ) ;
#7 = AXIS2_PLACEMENT_3D ( 'NONE', #213, #251, #105 ) ;
#8 = DIRECTION ( 'NONE',  ( 0.000000000000000000, 0.000000000000000000, 1.000000000000000000 ) ) ;
#9 = DIRECTION ( 'NONE',  ( -1.000000000000000000, 0.000000000000000000, 0.000000000000000000 ) ) ;
#10 = CYLINDRICAL_SURFACE ( 'NONE', #82, 6.000000000000000888 ) ;
#11 = EDGE_CURVE ( 'NONE', #204, #151, #104, .T. ) ;
#12 = ORGANIZATION ( 'NEURÈENÝ', 'NEURÈENÝ', '' ) ;
#13 = ORIENTED_EDGE ( 'NONE', *, *, #31, .F. ) ;
#14 = ADVANCED_FACE ( 'NONE', ( #48 ), #211, .T. ) ;
#15 = CARTESIAN_POINT ( 'NONE',  ( 0.000000000000000000, 0.000000000000000000, 5.000000000000000000 ) ) ;
#16 = DIRECTION ( 'NONE',  ( 1.000000000000000000, 0.000000000000000000, 0.000000000000000000 ) ) ;
#17 = DIRECTION ( 'NONE',  ( 0.000000000000000000, 0.000000000000000000, 1.000000000000000000 ) ) ;
#18 = EDGE_LOOP ( 'NONE', ( #210, #234 ) ) ;
#19 = AXIS2_PLACEMENT_3D ( 'NONE', #232, #124, #28 ) ;
#20 = VERTEX_POINT ( 'NONE', #159 ) ;
#21 = ORIENTED_EDGE ( 'NONE', *, *, #174, .F. ) ;
#22 = CARTESIAN_POINT ( 'NONE',  ( 3.100000000000000089, 3.796405077356794918E-16, 160.0000000000000000 ) ) ;
#23 = CC_DESIGN_PERSON_AND_ORGANIZATION_ASSIGNMENT ( #199, #2, ( #59 ) ) ;
#24 = DIRECTION ( 'NONE',  ( 0.000000000000000000, 0.000000000000000000, 1.000000000000000000 ) ) ;
#25 = PERSON_AND_ORGANIZATION_ROLE ( 'design_owner' ) ;
#26 = DIRECTION ( 'NONE',  ( -0.000000000000000000, -0.000000000000000000, -1.000000000000000000 ) ) ;
#27 = PERSON_AND_ORGANIZATION ( #125, #12 ) ;
#28 = DIRECTION ( 'NONE',  ( 1.000000000000000000, 0.000000000000000000, 0.000000000000000000 ) ) ;
#29 = APPROVAL_ROLE ( '' ) ;
#30 = DESIGN_CONTEXT ( 'detailed design', #149, 'design' ) ;
#31 = EDGE_CURVE ( 'NONE', #245, #37, #138, .T. ) ;
#32 = CARTESIAN_POINT ( 'NONE',  ( -6.000000000000000888, 0.000000000000000000, 0.000000000000000000 ) ) ;
#33 = DIRECTION ( 'NONE',  ( -1.000000000000000000, 0.000000000000000000, 0.000000000000000000 ) ) ;
#34 = APPROVAL_DATE_TIME ( #86, #85 ) ;
#35 = CARTESIAN_POINT ( 'NONE',  ( 0.000000000000000000, 0.000000000000000000, 0.000000000000000000 ) ) ;
#36 = ORIENTED_EDGE ( 'NONE', *, *, #162, .T. ) ;
#37 = VERTEX_POINT ( 'NONE', #32 ) ;
#38 = AXIS2_PLACEMENT_3D ( 'NONE', #243, #17, #242 ) ;
#39 = FACE_OUTER_BOUND ( 'NONE', #147, .T. ) ;
#40 = CIRCLE ( 'NONE', #63, 3.100000000000000089 ) ;
#41 = CARTESIAN_POINT ( 'NONE',  ( 0.000000000000000000, 0.000000000000000000, 160.0000000000000000 ) ) ;
#42 = LINE ( 'NONE', #193, #113 ) ;
#43 = DIRECTION ( 'NONE',  ( 1.000000000000000000, 0.000000000000000000, -0.000000000000000000 ) ) ;
#44 = VECTOR ( 'NONE', #126, 1000.000000000000000 ) ;
#45 = FACE_OUTER_BOUND ( 'NONE', #60, .T. ) ;
#46 = CC_DESIGN_APPROVAL ( #183, ( #49 ) ) ;
#47 = ORIENTED_EDGE ( 'NONE', *, *, #228, .F. ) ;
#48 = FACE_OUTER_BOUND ( 'NONE', #65, .T. ) ;
#49 = SECURITY_CLASSIFICATION ( '', '', #131 ) ;
#50 = EDGE_CURVE ( 'NONE', #201, #139, #158, .T. ) ;
#51 = CARTESIAN_POINT ( 'NONE',  ( 0.000000000000000000, 0.000000000000000000, 0.000000000000000000 ) ) ;
#52 = APPLICATION_PROTOCOL_DEFINITION ( 'international standard', 'config_control_design', 1994, #149 ) ;
#53 = ADVANCED_FACE ( 'NONE', ( #207 ), #182, .T. ) ;
#54 = AXIS2_PLACEMENT_3D ( 'NONE', #250, #66, #33 ) ;
#55 = EDGE_CURVE ( 'NONE', #151, #245, #248, .T. ) ;
#56 = ADVANCED_BREP_SHAPE_REPRESENTATION ( 'f2b6', ( #157, #7 ), #119 ) ;
#57 = PRODUCT_DEFINITION_FORMATION_WITH_SPECIFIED_SOURCE ( 'LIBOVOLNÝ', '', #87, .NOT_KNOWN. ) ;
#58 = APPROVAL_DATE_TIME ( #187, #183 ) ;
#59 = PRODUCT_DEFINITION ( 'NEZNÁMÝ', '', #57, #30 ) ;
#60 = EDGE_LOOP ( 'NONE', ( #129, #13 ) ) ;
#61 =( NAMED_UNIT ( * ) PLANE_ANGLE_UNIT ( ) SI_UNIT ( $, .RADIAN. ) );
#62 = PLANE ( 'NONE',  #128 ) ;
#63 = AXIS2_PLACEMENT_3D ( 'NONE', #145, #73, #236 ) ;
#64 = PERSON_AND_ORGANIZATION ( #125, #12 ) ;
#65 = EDGE_LOOP ( 'NONE', ( #132, #181, #209, #76 ) ) ;
#66 = DIRECTION ( 'NONE',  ( -0.000000000000000000, -0.000000000000000000, -1.000000000000000000 ) ) ;
#67 = AXIS2_PLACEMENT_3D ( 'NONE', #15, #110, #195 ) ;
#68 = CALENDAR_DATE ( 2023, 12, 2 ) ;
#69 = ORIENTED_EDGE ( 'NONE', *, *, #55, .T. ) ;
#70 = COORDINATED_UNIVERSAL_TIME_OFFSET ( 1, 0, .AHEAD. ) ;
#71 = AXIS2_PLACEMENT_3D ( 'NONE', #170, #173, #92 ) ;
#72 = APPROVAL_PERSON_ORGANIZATION ( #79, #221, #160 ) ;
#73 = DIRECTION ( 'NONE',  ( 0.000000000000000000, 0.000000000000000000, 1.000000000000000000 ) ) ;
#74 = COORDINATED_UNIVERSAL_TIME_OFFSET ( 1, 0, .AHEAD. ) ;
#75 = CARTESIAN_POINT ( 'NONE',  ( 6.000000000000000888, 7.347880794884120722E-16, 5.000000000000000000 ) ) ;
#76 = ORIENTED_EDGE ( 'NONE', *, *, #217, .T. ) ;
#77 = LINE ( 'NONE', #153, #241 ) ;
#78 = EDGE_CURVE ( 'NONE', #20, #201, #197, .T. ) ;
#79 = PERSON_AND_ORGANIZATION ( #125, #12 ) ;
#80 = CARTESIAN_POINT ( 'NONE',  ( -6.000000000000000888, 0.000000000000000000, 5.000000000000000000 ) ) ;
#81 = LOCAL_TIME ( 12, 33, 11.00000000000000000, #164 ) ;
#82 = AXIS2_PLACEMENT_3D ( 'NONE', #142, #26, #9 ) ;
#83 = CC_DESIGN_PERSON_AND_ORGANIZATION_ASSIGNMENT ( #64, #25, ( #87 ) ) ;
#84 = CARTESIAN_POINT ( 'NONE',  ( 0.000000000000000000, 0.000000000000000000, 0.000000000000000000 ) ) ;
#85 = APPROVAL ( #168, 'NEURÈENÝ' ) ;
#86 = DATE_AND_TIME ( #212, #155 ) ;
#87 = PRODUCT ( 'f2b6', 'f2b6', '', ( #166 ) ) ;
#88 = PERSON_AND_ORGANIZATION ( #125, #12 ) ;
#89 = CIRCLE ( 'NONE', #71, 3.100000000000000089 ) ;
#90 = CARTESIAN_POINT ( 'NONE',  ( 6.000000000000000888, 7.347880794884120722E-16, 5.000000000000000000 ) ) ;
#91 = ADVANCED_FACE ( 'NONE', ( #107 ), #191, .T. ) ;
#92 = DIRECTION ( 'NONE',  ( 1.000000000000000000, 0.000000000000000000, 0.000000000000000000 ) ) ;
#93 = DATE_TIME_ROLE ( 'creation_date' ) ;
#94 = AXIS2_PLACEMENT_3D ( 'NONE', #225, #102, #16 ) ;
#95 = ORIENTED_EDGE ( 'NONE', *, *, #246, .F. ) ;
#96 = APPROVAL_STATUS ( 'not_yet_approved' ) ;
#97 = EDGE_LOOP ( 'NONE', ( #223, #3 ) ) ;
#98 = COORDINATED_UNIVERSAL_TIME_OFFSET ( 1, 0, .AHEAD. ) ;
#99 =( LENGTH_UNIT ( ) NAMED_UNIT ( * ) SI_UNIT ( .MILLI., .METRE. ) );
#100 = APPROVAL_PERSON_ORGANIZATION ( #88, #85, #29 ) ;
#101 = EDGE_CURVE ( 'NONE', #205, #20, #40, .T. ) ;
#102 = DIRECTION ( 'NONE',  ( 0.000000000000000000, 0.000000000000000000, 1.000000000000000000 ) ) ;
#103 = DIRECTION ( 'NONE',  ( 1.000000000000000000, 0.000000000000000000, 0.000000000000000000 ) ) ;
#104 = CIRCLE ( 'NONE', #19, 6.000000000000000888 ) ;
#105 = DIRECTION ( 'NONE',  ( 1.000000000000000000, 0.000000000000000000, 0.000000000000000000 ) ) ;
#106 = CC_DESIGN_PERSON_AND_ORGANIZATION_ASSIGNMENT ( #27, #231, ( #49 ) ) ;
#107 = FACE_OUTER_BOUND ( 'NONE', #117, .T. ) ;
#108 = APPROVAL_DATE_TIME ( #146, #221 ) ;
#109 = APPROVAL_PERSON_ORGANIZATION ( #206, #183, #177 ) ;
#110 = DIRECTION ( 'NONE',  ( 0.000000000000000000, 0.000000000000000000, 1.000000000000000000 ) ) ;
#111 = CARTESIAN_POINT ( 'NONE',  ( -3.100000000000000089, 0.000000000000000000, 5.000000000000000000 ) ) ;
#112 = VECTOR ( 'NONE', #127, 1000.000000000000000 ) ;
#113 = VECTOR ( 'NONE', #218, 1000.000000000000000 ) ;
#114 = EDGE_LOOP ( 'NONE', ( #192, #196 ) ) ;
#115 = ORIENTED_EDGE ( 'NONE', *, *, #246, .T. ) ;
#116 = CLOSED_SHELL ( 'NONE', ( #91, #4, #14, #154, #198, #53, #5 ) ) ;
#117 = EDGE_LOOP ( 'NONE', ( #239, #115, #36, #238 ) ) ;
#118 = DIRECTION ( 'NONE',  ( 1.000000000000000000, 0.000000000000000000, 0.000000000000000000 ) ) ;
#119 =( GEOMETRIC_REPRESENTATION_CONTEXT ( 3 ) GLOBAL_UNCERTAINTY_ASSIGNED_CONTEXT ( ( #247 ) ) GLOBAL_UNIT_ASSIGNED_CONTEXT ( ( #99, #61, #227 ) ) REPRESENTATION_CONTEXT ( 'NONE', 'WORKASPACE' ) );
#120 = CARTESIAN_POINT ( 'NONE',  ( 0.000000000000000000, 0.000000000000000000, 160.0000000000000000 ) ) ;
#121 = DIRECTION ( 'NONE',  ( 1.000000000000000000, 0.000000000000000000, 0.000000000000000000 ) ) ;
#122 = PERSON_AND_ORGANIZATION ( #125, #12 ) ;
#123 = CALENDAR_DATE ( 2023, 12, 2 ) ;
#124 = DIRECTION ( 'NONE',  ( 0.000000000000000000, 0.000000000000000000, 1.000000000000000000 ) ) ;
#125 = PERSON ( 'NEURÈENÝ', 'NEURÈENÝ', 'NEURÈENÝ', ('NEURÈENÝ'), ('NEURÈENÝ'), ('NEURÈENÝ') ) ;
#126 = DIRECTION ( 'NONE',  ( -0.000000000000000000, -0.000000000000000000, -1.000000000000000000 ) ) ;
#127 = DIRECTION ( 'NONE',  ( -0.000000000000000000, -0.000000000000000000, -1.000000000000000000 ) ) ;
#128 = AXIS2_PLACEMENT_3D ( 'NONE', #120, #229, #233 ) ;
#129 = ORIENTED_EDGE ( 'NONE', *, *, #217, .F. ) ;
#130 = ORIENTED_EDGE ( 'NONE', *, *, #31, .T. ) ;
#131 = SECURITY_CLASSIFICATION_LEVEL ( 'unclassified' ) ;
#132 = ORIENTED_EDGE ( 'NONE', *, *, #55, .F. ) ;
#133 = PRODUCT_RELATED_PRODUCT_CATEGORY ( 'detail', '', ( #87 ) ) ;
#134 = DIRECTION ( 'NONE',  ( 0.000000000000000000, 0.000000000000000000, 1.000000000000000000 ) ) ;
#135 = COORDINATED_UNIVERSAL_TIME_OFFSET ( 1, 0, .AHEAD. ) ;
#136 = CIRCLE ( 'NONE', #94, 6.000000000000000888 ) ;
#137 = EDGE_CURVE ( 'NONE', #204, #37, #42, .T. ) ;
#138 = CIRCLE ( 'NONE', #244, 6.000000000000000888 ) ;
#139 = VERTEX_POINT ( 'NONE', #255 ) ;
#140 = PRODUCT_DEFINITION_SHAPE ( 'NONE', 'NONE',  #59 ) ;
#141 = APPLICATION_PROTOCOL_DEFINITION ( 'international standard', 'config_control_design', 1994, #219 ) ;
#142 = CARTESIAN_POINT ( 'NONE',  ( 0.000000000000000000, 0.000000000000000000, 5.000000000000000000 ) ) ;
#143 = PERSON_AND_ORGANIZATION_ROLE ( 'creator' ) ;
#144 = CIRCLE ( 'NONE', #38, 3.100000000000000089 ) ;
#145 = CARTESIAN_POINT ( 'NONE',  ( 0.000000000000000000, 0.000000000000000000, 160.0000000000000000 ) ) ;
#146 = DATE_AND_TIME ( #123, #185 ) ;
#147 = EDGE_LOOP ( 'NONE', ( #47, #69, #130, #184 ) ) ;
#148 = FACE_BOUND ( 'NONE', #18, .T. ) ;
#149 = APPLICATION_CONTEXT ( 'configuration controlled 3d designs of mechanical parts and assemblies' ) ;
#150 = CC_DESIGN_APPROVAL ( #85, ( #59 ) ) ;
#151 = VERTEX_POINT ( 'NONE', #75 ) ;
#152 = ORIENTED_EDGE ( 'NONE', *, *, #50, .T. ) ;
#153 = CARTESIAN_POINT ( 'NONE',  ( 3.100000000000000089, 3.796405077356794918E-16, 160.0000000000000000 ) ) ;
#154 = ADVANCED_FACE ( 'NONE', ( #148, #171 ), #237, .T. ) ;
#155 = LOCAL_TIME ( 12, 33, 11.00000000000000000, #74 ) ;
#156 = DIRECTION ( 'NONE',  ( 0.000000000000000000, 0.000000000000000000, 1.000000000000000000 ) ) ;
#157 = MANIFOLD_SOLID_BREP ( 'Pøidat vysunutím3', #116 ) ;
#158 = CIRCLE ( 'NONE', #200, 3.100000000000000089 ) ;
#159 = CARTESIAN_POINT ( 'NONE',  ( -3.100000000000000089, 0.000000000000000000, 160.0000000000000000 ) ) ;
#160 = APPROVAL_ROLE ( '' ) ;
#161 = CARTESIAN_POINT ( 'NONE',  ( 0.000000000000000000, 0.000000000000000000, 160.0000000000000000 ) ) ;
#162 = EDGE_CURVE ( 'NONE', #139, #201, #89, .T. ) ;
#163 = FACE_OUTER_BOUND ( 'NONE', #97, .T. ) ;
#164 = COORDINATED_UNIVERSAL_TIME_OFFSET ( 1, 0, .AHEAD. ) ;
#165 = CARTESIAN_POINT ( 'NONE',  ( 0.000000000000000000, 0.000000000000000000, 5.000000000000000000 ) ) ;
#166 = MECHANICAL_CONTEXT ( 'NONE', #219, 'mechanical' ) ;
#167 = DIRECTION ( 'NONE',  ( -1.000000000000000000, 0.000000000000000000, 0.000000000000000000 ) ) ;
#168 = APPROVAL_STATUS ( 'not_yet_approved' ) ;
#169 = DIRECTION ( 'NONE',  ( -0.000000000000000000, -0.000000000000000000, -1.000000000000000000 ) ) ;
#170 = CARTESIAN_POINT ( 'NONE',  ( 0.000000000000000000, 0.000000000000000000, 5.000000000000000000 ) ) ;
#171 = FACE_OUTER_BOUND ( 'NONE', #114, .T. ) ;
#172 = PERSON_AND_ORGANIZATION_ROLE ( 'design_supplier' ) ;
#173 = DIRECTION ( 'NONE',  ( 0.000000000000000000, 0.000000000000000000, 1.000000000000000000 ) ) ;
#174 = EDGE_CURVE ( 'NONE', #20, #205, #144, .T. ) ;
#175 = CARTESIAN_POINT ( 'NONE',  ( 6.000000000000000888, 7.347880794884120722E-16, 0.000000000000000000 ) ) ;
#176 = AXIS2_PLACEMENT_3D ( 'NONE', #41, #169, #167 ) ;
#177 = APPROVAL_ROLE ( '' ) ;
#178 = SHAPE_DEFINITION_REPRESENTATION ( #140, #56 ) ;
#179 = CALENDAR_DATE ( 2023, 12, 2 ) ;
#180 = CC_DESIGN_SECURITY_CLASSIFICATION ( #49, ( #57 ) ) ;
#181 = ORIENTED_EDGE ( 'NONE', *, *, #11, .F. ) ;
#182 = CYLINDRICAL_SURFACE ( 'NONE', #6, 3.100000000000000089 ) ;
#183 = APPROVAL ( #96, 'NEURÈENÝ' ) ;
#184 = ORIENTED_EDGE ( 'NONE', *, *, #137, .F. ) ;
#185 = LOCAL_TIME ( 12, 33, 11.00000000000000000, #70 ) ;
#186 = AXIS2_PLACEMENT_3D ( 'NONE', #84, #156, #118 ) ;
#187 = DATE_AND_TIME ( #179, #194 ) ;
#188 = DIRECTION ( 'NONE',  ( -1.000000000000000000, 0.000000000000000000, 0.000000000000000000 ) ) ;
#189 = AXIS2_PLACEMENT_3D ( 'NONE', #35, #134, #43 ) ;
#190 = DATE_AND_TIME ( #68, #81 ) ;
#191 = CYLINDRICAL_SURFACE ( 'NONE', #176, 3.100000000000000089 ) ;
#192 = ORIENTED_EDGE ( 'NONE', *, *, #11, .T. ) ;
#193 = CARTESIAN_POINT ( 'NONE',  ( -6.000000000000000888, 0.000000000000000000, 5.000000000000000000 ) ) ;
#194 = LOCAL_TIME ( 12, 33, 11.00000000000000000, #98 ) ;
#195 = DIRECTION ( 'NONE',  ( 1.000000000000000000, 0.000000000000000000, -0.000000000000000000 ) ) ;
#196 = ORIENTED_EDGE ( 'NONE', *, *, #228, .T. ) ;
#197 = LINE ( 'NONE', #216, #112 ) ;
#198 = ADVANCED_FACE ( 'NONE', ( #45 ), #214, .F. ) ;
#199 = PERSON_AND_ORGANIZATION ( #125, #12 ) ;
#200 = AXIS2_PLACEMENT_3D ( 'NONE', #165, #24, #103 ) ;
#201 = VERTEX_POINT ( 'NONE', #111 ) ;
#202 = DATE_AND_TIME ( #220, #215 ) ;
#203 = CC_DESIGN_PERSON_AND_ORGANIZATION_ASSIGNMENT ( #122, #143, ( #57 ) ) ;
#204 = VERTEX_POINT ( 'NONE', #80 ) ;
#205 = VERTEX_POINT ( 'NONE', #22 ) ;
#206 = PERSON_AND_ORGANIZATION ( #125, #12 ) ;
#207 = FACE_OUTER_BOUND ( 'NONE', #226, .T. ) ;
#208 = CC_DESIGN_APPROVAL ( #221, ( #57 ) ) ;
#209 = ORIENTED_EDGE ( 'NONE', *, *, #137, .T. ) ;
#210 = ORIENTED_EDGE ( 'NONE', *, *, #50, .F. ) ;
#211 = CYLINDRICAL_SURFACE ( 'NONE', #54, 6.000000000000000888 ) ;
#212 = CALENDAR_DATE ( 2023, 12, 2 ) ;
#213 = CARTESIAN_POINT ( 'NONE',  ( 0.000000000000000000, 0.000000000000000000, 0.000000000000000000 ) ) ;
#214 = PLANE ( 'NONE',  #189 ) ;
#215 = LOCAL_TIME ( 12, 33, 11.00000000000000000, #135 ) ;
#216 = CARTESIAN_POINT ( 'NONE',  ( -3.100000000000000089, 0.000000000000000000, 160.0000000000000000 ) ) ;
#217 = EDGE_CURVE ( 'NONE', #37, #245, #253, .T. ) ;
#218 = DIRECTION ( 'NONE',  ( -0.000000000000000000, -0.000000000000000000, -1.000000000000000000 ) ) ;
#219 = APPLICATION_CONTEXT ( 'configuration controlled 3d designs of mechanical parts and assemblies' ) ;
#220 = CALENDAR_DATE ( 2023, 12, 2 ) ;
#221 = APPROVAL ( #1, 'NEURÈENÝ' ) ;
#222 = DATE_TIME_ROLE ( 'classification_date' ) ;
#223 = ORIENTED_EDGE ( 'NONE', *, *, #174, .T. ) ;
#224 = ORIENTED_EDGE ( 'NONE', *, *, #78, .T. ) ;
#225 = CARTESIAN_POINT ( 'NONE',  ( 0.000000000000000000, 0.000000000000000000, 5.000000000000000000 ) ) ;
#226 = EDGE_LOOP ( 'NONE', ( #95, #21, #224, #152 ) ) ;
#227 =( NAMED_UNIT ( * ) SI_UNIT ( $, .STERADIAN. ) SOLID_ANGLE_UNIT ( ) );
#228 = EDGE_CURVE ( 'NONE', #151, #204, #136, .T. ) ;
#229 = DIRECTION ( 'NONE',  ( 0.000000000000000000, 0.000000000000000000, 1.000000000000000000 ) ) ;
#230 = PERSON_AND_ORGANIZATION ( #125, #12 ) ;
#231 = PERSON_AND_ORGANIZATION_ROLE ( 'classification_officer' ) ;
#232 = CARTESIAN_POINT ( 'NONE',  ( 0.000000000000000000, 0.000000000000000000, 5.000000000000000000 ) ) ;
#233 = DIRECTION ( 'NONE',  ( 1.000000000000000000, 0.000000000000000000, -0.000000000000000000 ) ) ;
#234 = ORIENTED_EDGE ( 'NONE', *, *, #162, .F. ) ;
#235 = CC_DESIGN_DATE_AND_TIME_ASSIGNMENT ( #190, #222, ( #49 ) ) ;
#236 = DIRECTION ( 'NONE',  ( 1.000000000000000000, 0.000000000000000000, 0.000000000000000000 ) ) ;
#237 = PLANE ( 'NONE',  #67 ) ;
#238 = ORIENTED_EDGE ( 'NONE', *, *, #78, .F. ) ;
#239 = ORIENTED_EDGE ( 'NONE', *, *, #101, .F. ) ;
#240 = DIRECTION ( 'NONE',  ( -0.000000000000000000, -0.000000000000000000, -1.000000000000000000 ) ) ;
#241 = VECTOR ( 'NONE', #240, 1000.000000000000000 ) ;
#242 = DIRECTION ( 'NONE',  ( 1.000000000000000000, 0.000000000000000000, 0.000000000000000000 ) ) ;
#243 = CARTESIAN_POINT ( 'NONE',  ( 0.000000000000000000, 0.000000000000000000, 160.0000000000000000 ) ) ;
#244 = AXIS2_PLACEMENT_3D ( 'NONE', #51, #8, #121 ) ;
#245 = VERTEX_POINT ( 'NONE', #175 ) ;
#246 = EDGE_CURVE ( 'NONE', #205, #139, #77, .T. ) ;
#247 = UNCERTAINTY_MEASURE_WITH_UNIT (LENGTH_MEASURE( 1.000000000000000082E-05 ), #99, 'distance_accuracy_value', 'NONE');
#248 = LINE ( 'NONE', #90, #44 ) ;
#249 = DIRECTION ( 'NONE',  ( -0.000000000000000000, -0.000000000000000000, -1.000000000000000000 ) ) ;
#250 = CARTESIAN_POINT ( 'NONE',  ( 0.000000000000000000, 0.000000000000000000, 5.000000000000000000 ) ) ;
#251 = DIRECTION ( 'NONE',  ( 0.000000000000000000, 0.000000000000000000, 1.000000000000000000 ) ) ;
#252 = CC_DESIGN_DATE_AND_TIME_ASSIGNMENT ( #202, #93, ( #59 ) ) ;
#253 = CIRCLE ( 'NONE', #186, 6.000000000000000888 ) ;
#254 = CC_DESIGN_PERSON_AND_ORGANIZATION_ASSIGNMENT ( #230, #172, ( #57 ) ) ;
#255 = CARTESIAN_POINT ( 'NONE',  ( 3.100000000000000089, 3.796405077356794918E-16, 5.000000000000000000 ) ) ;
ENDSEC;
END-ISO-10303-21;
